Hometown Hero - Eighteen Chords & Tabs

 

Eighteen Chords & Tabs

Hometown Hero Chords & Tabs

Version: 2 Type: Tab 0 ratings
1 star 2 stars 3 stars 4 stars 5 stars
comments

Eighteen Tab

   
Artist:  Home Town Hero 
Song Title:  Eighteen
Tabbed by:  jbanko93@hotmail.com

1/2 Step down tuning (Eb Ab Db Gb Bb Eb)

Intro and Verses.  Listen to the song to figure out the change-offs and 
strumming.
        D 	  G	        A
e|------2---------3------------------------------------------------------------|
B|------3---------3-------------2----------------------------------------------|
G|------2---------0-------------2----------------------------------------------|
D|------0---------0-------------2----------------------------------------------|
A|----------------2-------------0----------------------------------------------|
E|----------------3------------------------------------------------------------|

Chorus.
[ Tab from: http://www.guitartabs.cc/tabs/h/hometown_hero/eighteen_tab_ver_2.html ]
e|----------------3-------------5----------------------------------------------|
B|----------------3-------------5----------------------------------------------|
G|------7---------4-------------6----------------------------------------------|
D|------7---------5-------------7----------------------------------------------|
A|------5---------5-------------7----------------------------------------------|
E|------5---------3-------------5----------------------------------------------|

Solo:
e|-----------------------------------------------------------------------------|
B|-----------------------------------------------------------------------------|
G|-----------------------------------------------------------------------------|
D|-----------12^14-14(b)-12------12^14-14(b)-12~-------------------------------|   3X
A|--12^14---------------------14---------------------------------------------|
E|-----------------------------------------------------------------------------|

e|-----------------------------------------------------------------------------|
B|-----------------------------------------------------------------------------|
G|-----------------------------------------------------------------------------|
D|-----------12-14^14(b)--12--9--7---------------------------------------------|
A|--12^14--------------------------------7(b)--5~------------------------------|
E|-----------------------------------------------------------------------------|
                                             slow bend

This is my first tab, so please email me any changes or corrections...
Please be gentle, and rate it if you get a chance.
Thanks
Comments