Homesick - I Am Chords & Tabs

 

I Am Chords & Tabs

Homesick Chords & Tabs

Version: 1 Type: Tab 0 ratings
1 star 2 stars 3 stars 4 stars 5 stars
comments

I Am Tab

   
homesick
guitar tab
Nick Strangis
 

"I Am"


This one is sort of hard to follow so pay attention to the markings.

C* ---- 302013
G ----- 320003
F* ---- 133210
C ----- 032010
Em ---- 022000
D ----- x00232
Cadd9 - x32033

Rhythm will play over lead

Intro
play C* G 4x

|-3-|play 2x
|-3-|
|-0-|
|-0-|
|-2-|
|-3-|

Verse
C*______G_________C*_____G__C*______G_____________C*______G
I never been on a railroad, As many times as they pass me by

F*______C______________F*___C___________________C* G C* G
I never crashed in the desert, or seen a rodeo

C*__________G______________C*_________G___________C*___G_________________C*____G
I dont know much about the world wars or vietnam, I've yet to read about uncle tom
Riff1
|-3-|-------------------------------------------|-3-|
|-3-|-------------------------------------------|-3-|
|-0-|-------------------------------------------|-0-|
|-0-|-------------------------------------------|-0-|
|-2-|-------------------------------------------|-2-|
|-3-|-------------------------------------------|-3-|

F*______C____________________F*______C____________C* G C* G
I never climbed a real rock, or seen colorado
Riff2
___________________________________________________(add with 2nd Verse)
|-3-----3-|----------------|-3-------3-|--------|-3-------3-|-3-|
|-1-----1-|----------------|-1-------1-|--------|-3-----3---|-3-|
|-0-----0-|----------------|-0-------0-|--------|-0---0-----|-0-|
|-3-----2-|----------------|-3-------2-|--------|-0---------|---|
|---------|----------------|-----------|--------|-2---------|---|
|---------|----------------|-----------|--------|-3---------|---|


*Bridge* Keep in mind a lot of these notes are played more than
once before moving on.

Em___________Em
Am I the son I think I am
Riff3
|-------------------|
|-3/5-5-5-5-5-5-3---|
|-----0---0---0-2^3-|
|-------------------|
|-------------------|
|-------------------|

C_______________C
Am I the friend I think I am
Riff4
|-------3-3-3-3-|
|-3^5-5-5-5-5-5-|
|-----0---0---0-|
|---------------|
|---------------|
|---------------|

Em___________Em_____________________
Am I the man I think I wanna be...
Play Riff3 again.
[ Tab from: http://www.guitartabs.cc/tabs/h/homesick/i_am_tab.html ]
__C_____C
Riff5__________*Riff6 (play with 2nd Verse, then skip to Chorus)*
|-----3-3*5-3-|-------3-5-3-3-5-5-|
|-3^5-5-5---5-|-3^5-5-5-5-5-5-5-5-|
|-----0-----0-|-----0---0-0-0-0-0-|
|-------------|-------------------|
|-------------|-------------------|
|-------------|-------------------|

Play C* G 4x

*Repeat Verse starting with Riff1*

*Chorus*

D______________D_______________Cadd9_________Cadd9
Im here for my sanity, sanity, I am here for you
Riff7
|------10----------10----10--------8-------8---8---|
|-8/10----10----10----10------10/8---8---8---8-----|
|-------------0-------------0----------0---------0-|
|--------------------------------------------------|
|--------------------------------------------------|
|--------------------------------------------------|

D_____________________D________________Cadd9_____C
And i'm here for your fantasy, sanity, I am here... I am
Riff8
|------10----------10----10--------8-------------8-|
|-8/10----10----10----10------10/8---8-----------8-|
|-------------0-------------0--------------------0-|
|--------------------------------------------------|
|--------------------------------------------------|
|--------------------------------------------------|

Play C* G 4x, then F* C C* G

Repeat Bridge, Play Chorus slow 2x followed by..
Riff9
|------10----------10----10--------8-----8-----7-----7-----5-3-3-5-3-3-|
|-8/10----10----10----10------10/8---8---8-----7-----7-----5-3-3-5-3-3-|
|-------------0-------------0----------0---0-0---0-0---0-0-------------|
|----------------------------------------------------------------------|
|----------------------------------------------------------------------|
|----------------------------------------------------------------------|
Riff9 (continued)
|-3/5-5-5-5-5-5-5-5-5-5-5--5/8-8-8-8-8-8/10-10-10-10-10-10-|
|-3/5-5-5-5-5/7-7-7-7-7-7--7/8-8-8-8-8-8/10-10-10-10-10-10-|
|-0-0-0-0-0-0-0-0-0-0-0-0--0-0-0-0-0-0-0--0--0--0--0--0--0-|
|----------------------------------------------------------|
|----------------------------------------------------------|
|----------------------------------------------------------|

Riff9 (continued2)
|-8*7---10*7---12*7---10*7---8-|
|-----8------8------8------8-8-|
|----------------------------0-|
|------------------------------|
|------------------------------|
|------------------------------|

Play C* G 3x end with C* strum.


Comments