Homesick - Homesick Chords & Tabs

 

Homesick Chords & Tabs

Homesick Chords & Tabs

Version: 1 Type: Tab 0 ratings
1 star 2 stars 3 stars 4 stars 5 stars
comments

Homesick Tab

   
homesick 
guitar tab 
  
  
"Homesick"




Transcribed by Michael A. Mazur 

Chords for Guitar 1 
D/B   : x2023x 
Gadd9 : 3x023x 
Dadd4 : 55403x 

Intro: 
  Guitar 1 (12 string acoustic) 
  Guitar 4 (6 string acoustic) plays a short fill in measures 
   2 and 3 and then exits. 

___________________D______________________________________C__G/B 
|-------------||----------------------------|-------------------| 
|-------3-----||------3-----3---------3-----|-------3-----------| 
|--2h4-----4--||*-----2-----2----2h4-----4--|-------2-----0--0--| Guitar 1 
|-------------||*--0-----0------------------|--0-------0--2--0--| 
|-------------||----------------------------|-------------3--2--| 
|-------------||----------------------------|-------------------| 
|             ||                            |                   | 
|-------------||----------------------------|-------------------| 
|-------------||----------------------3-----|--3/7--5-----------| 
|-------------||-----------------2h4-----4--|-------------------| Guitar 4 
|-------------||----------------------------|-------------------| 
|-------------||----------------------------|-------------------| 
|-------------||----------------------------|-------------------| 


___________D___________________________C__G/B__G
|-----------------------------------|--------------------------||
|-------------3-----3---------3-----|-------------------3------||
|----0--0-----2-----2----2h4-----4--|--0--0--0-----2h4-----4--*||
|----0--0-----0--0------------------|--2--0--0--0-------------*||
|--2-------0------------------------|--3--2--2-----------------||
|-----------------------------------|-----------3--------------||



Verse: 
  Guitar 1 continues playing the same part. Before entering 
   into the prechorus, the last four notes are omitted. 

D______________________________C__G/B 
So you're tired of wakin up on empty 

____D_____________________________C__G/B__G 
You left for something that ain't real 

D__________________________C______G/B 
So you think a couple of familiar faces 

D_____________________C__G/B__G 
is gonna turn it all around 
  

Prechorus: 
  Guitar 1 plays the chords indicated 
  Guitars 2 and 3 are shown in tab 
  Guitar 2 is a distorted electric, played w/ slide 
  Guitar 3 is a clean electric 
  

_______A___________D/B___Gadd9____A___________C_____Dadd4 
||----------------|----------|---------------|------------|| 
||---1/2----------|----------|--1/2----------|------------|| 
||*--1/2----------|/7--------|--1/2----------|/12--------*|| 
||*--1/2----------|/7--------|--1/2----------|/12--------*|| 
||----------------|----------|---------------|------------|| 
||----------------|----------|---------------|------------|| 

||--------0-------|----------|-------0-------|------------|| 
||----------------|----------|----------2----|------------|| 
||*----2-----2----|----------|----2----------|-----------*|| 
||*---------------|----------|---------------|-----------*|| 
||----------------|----------|---------------|------------|| 
||----------------|----------|---------------|------------|| 
  

A_____________________________D/B___________Gadd9 
You wanna be where they still pump your gas for you 

A___________________________C____Dadd4 
...where they remember your name 

A____________________________D/B_____________Gadd9 
They think that you are some beauty queen or somethin better 

A___________________________C____Dadd4 
...where they remember your name 
  

Verse: 
  Guitar 1 plays same progression as before, beginning on 
   the beat before the verse with the same hammer-on riff 
   as in the intro. 
  Guitar 4 occasionally doubles the hammer-on riff 

________________________________________*w/ Fill 1 
Ain't it good to think about the weather 
Doesn't seem to be time for that no more 
It's hard to hear when you're busy sayin what you want said 
Well what you want said, it ain't clear 

Fill 1 (Guitar 2) 
|-----------------------| 
|-----------------------| 
|--5\4/5\4/5\4-------7--| 
|---------------5/7-----| 
|-----------------------| 
|-----------------------| 
  

Prechorus: 
  Same as before, except that Guitar 3 plays Fill 2 
  below instead of the last measure of silence before 
  the chorus. It is also doubled by a 12-string electric 
  starting with Fill 2. 
  

You wanna be where they still open doors for you 
It's not hard for them to remember you at all 
They light your cigarette and tell their friends 
you used to love them 
Where they remember your name 
[ Tab from: http://www.guitartabs.cc/tabs/h/homesick/homesick_tab.html ]
Fill 2 (Guitar 3) 
|-------------------| 
|-------------3-----| 
|--------0-------0--| 
|-----2-------------| 
|--3----------------| 
|-------------------| 
  

Chorus: 
  Guitar 1 plays straight chords throughout the chorus. 
  Guitar 2 plays (roughly) the tab below. There are some 
   notes that are held longer than others, or played more 
   than others, but you'll just have to listen for that. 
   Guitar 2 is also doubled by another distorted electric 
   during the choruses. 
  Guitar 3 plays and holds a D chord every four measures. 
  

___D_____________C_____________G_____________D 
|-------------|-------------|-------------|-------------| 
|-------------|-------------|-------------|-------------| 
|--7--7--x-7--|--5--5--x-5--|--4--4--x-4--|--2--2--x-2--| 
|--7--7--x-7--|--5--5--x-5--|--5--5--x-5--|--0--0--x-0--| 
|-------------|-------------|-------------|-------------| 
|-------------|-------------|-------------|-------------| 

D__C__G___D 
..More forgiveness 

D____C______________G_______________D 
More time away from feelin like you do today 

D__C__G___D 
..More forgiveness 

D____C______________G___________D 
More time away from feelin this way 
  

1st solo: 
  Guitar 1 plays verse chord progression. 
  Guitar 2 plays the tab below. 

|---------|----------------------|--------------------| 
|---------|----------------------|--------------/10---| 
|------7--|--5\4/5\4/5\4------7--|--/12---------------| 
|--/7-----|---------------/7-----|-------12\----------| 
|---------|----------------------|--------------------| 
|---------|----------------------|--------------------| 

|--10\8------------|----------------|----------------10--| 
|--------8\6-------|----------------|--8\7-----7/10------| 
|-------------6/7--|-\5------7--7\--|-------7------------| 
|------------------|-----/7-----7\--|--------------------| 
|------------------|----------------|--------------------| 
|------------------|----------------|--------------------| 

|---------------------|---------------------------| 
|---------------------|---------------------------| 
|----5\4/5\4/5\4------|--/12----------------------| 
|-----------------/7--|-------12--10\9--0--/5-----| 
|---------------------|------------------------5--| 
|---------------------|---------------------------| 
  

Verse: 

It's easy when you laugh, reminds you of you 
_____________________________________________________*w/ Fill 3 
It's easy when it's easy, it still ain't easy at all 
So you're tired of wakin up on empty 

*w/ Fill 4 
You left for something that ain't right, ain't right 

Fill 3             Fill 4 (both Guitar 2) 
|---------------||---------|---------------------------| 
|---------------||---------|---------------------------| 
|--5\4-------7--||------7--|------7---\----7------7-\--| 
|-------5/7-----||--/7-----|--/7-------/7-----/7----\--| 
|---------------||---------|---------------------------| 
|---------------||---------|---------------------------| 
  

Prechorus: 
  Guitar 3 now plays Fill 2 (simile) in all of the 
   even measures where it was resting before. 

You wanna be where they still pump your gas for you 
where they remember your name 
They think that you are some beauty queen 
or somethin better 
where they remember your name 
  

Chorus: 

More forgiveness 
More time away from feelin like you do today 
  

2nd solo: 
  Guitars 1 and 3 play the chorus progression, as does 
   the guitar doubling Guitar 2. 
  Guitar 2 plays the tab below. 

|-------10-------10------10--|------10------10--/14-\10-------| 
|--/10-------10------10------|--10------10---------------10\--| 
|----------------------------|--------------------------------| 
|----------------------------|--------------------------------| 
|----------------------------|--------------------------------| 
|----------------------------|--------------------------------| 
  

|--------------------|---------------------|--------------------| 
|--20\19------20/22--|--20\19--------------|----8\7-------------| 
|---------19---------|---------19--\17/19--|---------7--7\5-----| 
|--------------------|---------------------|-----------------5--| 
|--------------------|---------------------|--------------------| 
|--------------------|---------------------|--------------------| 

|----------------10--|\-----------------------| 
|--8\7-----7/10------|------------------------| 
|-------7------------|---5\4/5\4/5\4-------7--| 
|--------------------|----------------5/7-----| 
|--------------------|------------------------| 
|--------------------|------------------------| 

|-------------------------10--| 
|--8\--\-------------/10------| 
|-----7\--/5\4\--7\-----------| 
|--------------5/7\-----------| 
|-----------------------------| 
|-----------------------------| 

Chorus: 

More forgiveness 
More forgiveness 
More forgiveness 
More time away from feelin this way 

Ending: 
  Guitar 1 plays the intro (simile), ending 
  after the third measure on a Gadd9. 

Comments