Homegrown - Surfer Girl Chords & Tabs

 

Surfer Girl Chords & Tabs

Homegrown Chords & Tabs

Version: 1 Type: Tab 0 ratings
1 star 2 stars 3 stars 4 stars 5 stars
comments

Surfer Girl Tab

#----------------------------------PLEASE NOTE--------------------------------#
#This file is the author's own work and represents their interpretation of the#
#song. You may only use this file for private study, scholarship, or research.#
#-----------------------------------------------------------------------------#
#-- File created with Instab - http://www.pconline.com/~smcarey/instab.html --#
#-----------------------------------------------------------------------------#

Author/Artist: Homegrown
Title: Surfer Girl
Album: Act Your Age
Transcribed by: Will
-/10-9-------------------------------15p14|-------------------------2---------
-------10-8-7-7h8h10--15p14----15-17------|---3-----3-----3---3-------3---3---
----------------------------16------------|-----4-----4---------4-------4-----
------------------------------------------|-----------------------------------
------------------------------------------|-2-----2-----2---0-----0-----------
------------------------------------------|-----------------------------------
  lead intro                              other intro                         

---------------------------------------------------------2--------------------
---3-----3-----3-------------------3-----3-----3---3-------3---3---3-----3----
-----4-----4-------3-----3-----3-----4-----4---------4-------4-------4-----4--
---------------------4-----4--------------------------------------------------
---------------------------------2-----2-----2---0-----0----------------------
-3-----3-----3---2-----2-----2-----------------------------------3-----3------
                                                                              

-----2-|-2-----5-7-3-2-|------------------------------------------------------
---3-2-|-3---7-5-8-3-2-|-----------------------------------------------7-8-7--
-----3-|-4---7-6-9-4-3-|---6-7-9-7-6-7-6------------9b11b9p7---7-6---9--------
-----4-|-4---7-7-9-5-4-|/9---------------7-7/9---------------9-----9----------
-----4-|-2---5-7-7-5-4-|-----------------------10p9---------------------------
-3---2-|-------5---3-2-|------------------------------------------------------
         :26             :30                                                  

-12b14-12p10h12----10-10-10h12p10-9-|-----------------------14h15----14-------
----------------12------------------|--19----------------19-------17----------
------------------------------------|-----19-16----16-19----------------------
------------------------------------|-----------16----------------------------
------------------------------------|-----------------------------------------
------------------------------------|-----------------------------------------
                                      1:09                                    

-----------------------------------------------------------------|-33-3-33----
-15----14-15-14-14h15p14-12--------------------------------------|-33-3-33----
----17----------------------14-12-12h14p12-11---------9-11-12p11-|-44-4-44----
----------------------------------------------12p11-9------------|-55-5-55----
-----------------------------------------------------------------|-55-5-55----
-----------------------------------------------------------------|-33-3-33----
                                                                    1:40      
[ Tab from: http://www.guitartabs.cc/tabs/h/homegrown/surfer_girl_tab.html ]
------------------|--------------|--------------------------------------------
------------------|--------------|--------------------------------------------
------------------|-4---7--------|----7-----------------------------7-9b11b9p-
---4---4---77777--|-4-5-7-4------|-/9---7-7/9--------------------/9-----------
---4---4---77777--|-2-5-5-4------|---------------5-7b-5-7-7p5-----------------
-222-222---55555--|---3---2------|------------/7--------------7---------------
        last time   chorus  1:50     final solo 2:10                          

-----------------7-10-7----7---------------------|----------------------------
-----7---7-----7--------10---10-7----------------|----------------------------
-7---7---7---7--------------------9-7-9b11b9-7---|----------------------------
---9---9---9-----------------------------------9-|-4--4---------5-------------
-------------------------------------------------|-4--4---------5-------------
-------------------------------------------------|-2--2--2-2-2--3-3-3-3-3-3-3-
                                                   interlude 3:12             

------------------------------------------------------------------------------
------------------------------------------------------------------------------
------------------------------------------------------------------------------
----4--4---------5----------------4--4---------5----------------4--4--------5-
----4--4---------5----------------4--4---------5----------------4--4--------5-
-3--2--2--2-2-2--3-3-3-3-3-3-3-3--2--2--2-2-2--3-3-3-3-3-3-3-3--2--2-2-2-2--3-
                                                                              

-------------------------------------------------|-2--3--5--2--2--5-----------
-------------------------------------------------|-3--3--5--2--3--3-----------
-------------------------------------------------|-4--4--6--3--4--2-----------
----------------4--4---------7-7-7-7-7-7-7-7---9-|-4--5--7--4--4--4--5-5-5-5--
----------------4--4---------7-7-7-7-7-7-7-7---9-|-2--5--7--4--2--2--5-5-5-5--
-3-3-3-3-3-3-3--2--2--2-2-2--5-5-5-5-5-5-5-5---7-|----3--5--2--------3-3-3-3--
                                                   bridge 3:27                

-------------------------------------------|----------------------------------
-------------------------------------------|----------------------------------
-------------------------------------------|-----4------4------4------4-------
-5-5-5-5-5-5-5-5--7-7-7-7-7-7--4-4-4-4-4-4-|-----4------4------4------4-------
-5-5-5-5-5-5-5-5--7-7-7-7-7-7--4-4-4-4-4-4-|-2-2-2--2-2-2--2-2-2--2-2-2-------
-3-3-3-3-3-3-3-3--5-5-5-5-5-5--2-2-2-2-2-2-|-----2------2------2------2-------
                                             outro 3:47                       

---------------------------------------------------|--------------------------
---------------------------------------------------|--------------------------
---------------------------------------------------|-7-7-7-7-7-7-7-7-7-7-7-7--
-5-5-5-5-5-5-5-5-5-5-5-5--7-7-7-7-7-7--4-4-4-4-4-4-|-x-x-x-x-x-x-x-x-x-x-x-x--
-5-5-5-5-5-5-5-5-5-5-5-5--7-7-7-7-7-7--4-4-4-4-4-4-|-5-5-5-5-5-5-5-5-5-5-5-5--
-3-3-3-3-3-3-3-3-3-3-3-3--5-5-5-5-5-5--2-2-2-2-2-2-|--------------------------
 guitar 1 repeats 2x                                 guitar 2 plays this      

------------------------------------------------------------------------------
------------------------------------------------------------------------------
-6-6-6-6-6-6--3-3-3-3-3-3--7-7-7-7-7-7-7-7-7-7-7-7--6-6-6-6-6-6--11-11-11-11--
-x-x-x-x-x-x--x-x-x-x-x-x--x-x-x-x-x-x-x-x-x-x-x-x--x-x-x-x-x-x--x--x--x--x---
-4-4-4-4-4-4--1-1-1-1-1-1--5-5-5-5-5-5-5-5-5-5-5-5--4-4-4-4-4-4--9--9--9--9---
------------------------------------------------------------------------------
                                                                              

-------|-7--------------------------------------------------------------------
-------|-7--------------------------------------------------------------------
-11-11-|-7--------------------------------------------------------------------
-x--x--|-9--------------------------------------------------------------------
-9--9--|-9--------------------------------------------------------------------
-------|-7--------------------------------------------------------------------
         last chord 4:22                                                      

Comments