Home Grown - Youre Not Alone Chords & Tabs

 

Youre Not Alone Chords & Tabs

Home Grown Chords & Tabs

Version: 1 Type: Tab 0 ratings
1 star 2 stars 3 stars 4 stars 5 stars
comments

Youre Not Alone Tab

   
By: Ricky Whale (Baldrick02@aol.com)   

FIRST PART: 
----------------- 
Intro: 
e|------------------------0------------------------------------------------| 
B|----------------------4--------5/7-4-5-----------------------5-----------| 
G|----2~---------4----------------------4--------2---------4---------------| 
D|-2--------4/6--------------------------------2--------4/6----------------| 
A|---------0----------4--------------------------------0-------------------| 
E|2----------------------------0--------------2----------------------------| 

Intro Continued: 
e|--5---5---9---9---7---7---5---5-----9---9----12----12----10---- 9---9---0--| 
B|5---5---9---9---7---7---5---5-----9---9---12---12-------10------9---9------| 
G|---------------------------------------------------------------------------| 
D|---------------------------------------------------------------------------| 
A|---------------------------------------------------------------------------| 
E|---------------------------------------------------------------------------| 

Intro Continued: 
e|---------------------------------------------------------------------------| 
B|---------------------------------------------------------------------------| 
G|------13-13-13-13-11-11-11-11-9-9-9-9-------13-13-13-13-11-11-11-11-9-9-9-9| 
D|4-4-4-13-13-13-13-11-11-11-11-9-9-9-9-7-7-7-13-13-13-13-11-11-11-11-9-9-9-9| 
A|4-4-4-11-11-11-11--9--9--9--9-7-7-7-7-7-7-7-11-11-11-11--9--9--9--9-7-7-7-7| 
E|2-2-2---------------------------------5-5-5--------------------------------| 
... . ... 

Intro Continued: 
e|---------------------------------------------------------------------------| 
B|---------------------------------------------------------------------------| 
G|6-6-6-13-13-13-13-11-11-11-11-9-9-9-9-------13-13-13-13-14-14-14-14-11-11--| 
D|6-6-6-13-13-13-13-11-11-11-11-9-9-9-9-2-2-2-13-13-13-13-14-14-14-14-11-11--| 
A|4-4-4-11-11-11-11--9--9--9--9-7-7-7-7-2-2-2-11-11-11-11-12-12-12-12--9--9--| 
E|--------------------------------------0-0-0--------------------------------| 
... ... 


Verse Continued: 
e|--4-----4-----4-----4-----4-----| 
B|2-----2-----2-----2-----2-------| 
G|--------------------------------| 
D|--------------------------------| 
A|--------------------------------| 
E|----0-----0-----0-----0---------| 

[ Tab from: http://www.guitartabs.cc/tabs/h/home_grown/youre_not_alone_tab.html ]
Chorus: (2x)  
e|--------------------------| 
B|--------------------------| 
G|----------6---------------| 
D|4----7----6----2----------| 
A|4----7----4----2----------| 
E|2----5----4----0----------| 

Interlude: 
(3x) 
e|------------------------|--------------------------------------------------| 
B|------------------------|--------------------------------------------------| 
G|9-9-9-9-8-8-8-8-4-4-4-4-|-9-9-9-9-11-11-11-11-8-8-8-8----------------------| 
D|9-9-9-9-8-8-8-8-4-4-4-4-|-9-9-9-9-11-11-11-11-8-8-8-8----------------------| 
A|7-7-7-7-6-6-6-6-2-2-2-2-|-7-7-7-7--9--9--9--9-6-6-6-6----------------------| 
E|------------------------|--------------------------------------------------| 

Repeat Verse 

Repeat Chorus 

Interlude: 
e|--5---5---9---9---7---7---5---5----5---5---9---9---7---7---5---5-----------| 
B|5---5---9---9---7---7---5---5----5---5---9---9---7---7---5---5-------------| 
G|---------------------------------------------------------------------------| 
D|---------------------------------------------------------------------------| 
A|---------------------------------------------------------------------------| 
E|---------------------------------------------------------------------------| 

Bridge:  (2x) 
e|------------------------------------------| 
B|------------------------------------------| 
G|-----4----2---------4----9----------------| 
D|2----4----2----2----4----9----------------| 
A|2----2----0----2----2----7----------------| 
E|0--------------0--------------------------| 


Repeat Chorus 

Outro: 
(3x)
e|------------------------------------|--------------------------------------| 
B|------------------------------------|--------------------------------------| 
G|16-16-16-16-14-14-14-14-13-13-13-13-|-16-16-16-16-18-18-18-18-13-13-13-13--| 
D|16-16-16-16-14-14-14-14-13-13-13-13-|-16-16-16-16-18-18-18-18-13-13-13-13--| 
A|14-14-14-14-12-12-12-12-11-11-11-11-|-14-14-14-14-16-16-16-16-11-11-11-11--| 
E|------------------------------------|--------------------------------------| 

Outro Cont'd: 
e|----------------------------| 
B|----------------------------| 
G|----------------------------| 
D|----4-----4-----4-------7---| 
A|----4-----4-----4-4-4-4-7---| 
E|2-2-2-2-2-2-2-2-2-2-2-2-5---| 
..... 

Bridge: 
e|-----------------------------------------------------| 
B|-----------------------------------------------------| 
G|-----4----2---------4----2--11-9---------------------| 
D|2----4----2----2----4----2--11-9---------------------| 
A|2----2----0----2----2----0---9-7---------------------| 
E|0--------------0-------------------------------------| 
Comments