Home Grown - Wanna Be Chords & Tabs

 

Wanna Be Chords & Tabs

Home Grown Chords & Tabs

Version: 1 Type: Tab 0 ratings
1 star 2 stars 3 stars 4 stars 5 stars
comments

Wanna Be Tab

   
"Wanna Be"
by Home Grown
from the album "That's Business"

this is a good songs by a good band, I'm too lazy to put the strumming but 
the chords are right

 INTRO/BREAK        VERSE                     CHORUS
E------------------|-------------------------|---------------------|
B------------------|-------------------------|---------------------|
G----------7---9---|------7--6-----7--6------|------7-------7------|
D--7---4---7---9---|--7---7--6--7--7--6--7---|--9---7---7---7--7---|
A--7---4---5---7---|--7---5--4--7--5--4--7---|--9---5---7---5--7---|
E--5---2-----------|--5---------5--------5---|--7-------5------5---|

[ Tab from: http://www.guitartabs.cc/tabs/h/home_grown/wanna_be_tab.html ]
 BRIDGE
E------------------------------------------------------------|
B------------------------------------------------------------|
G------7-------7-------7---4---------7-------7-------7---9---|
D--4---7---4---7---4---7---4-----4---7---4---7---4---7---9---|
A--4---5---4---5---4---5---2-----4---5---4---5---4---5---7---|
E--2-------2-------2-------------2-------2-------2-----------|

 LEAD RIFF
E---------------------------------|
B---------------------------------|
G--7-6-----7-6-----7-6-7\9~~~~~---|
D------7~~-----7~~----------------|
A---------------------------------|
E---------------------------------|

play the intro/break at the beginning and at the part where they sing "ur not
punk, ur not ska" and play the bridge after johnne screams "you wanna-be!!"
play the lead riff over the intro/break, just listen to the cd, you'll get it
E
Comments