Home Grown - This Way Chords & Tabs

 

This Way Chords & Tabs

Home Grown Chords & Tabs

Version: 2 Type: Tab 0 ratings
1 star 2 stars 3 stars 4 stars 5 stars
comments

This Way Tab

Band: Home Grown
Song: This Way
Tabbed by:jenson



e-|--x-------------x------------------------------------------|
B-|--x-------------x------------------------------------------|
G-|--x-------------x-------------5-5-5-5-5-5-5-3-3-3-3-3-3-3--|
D-|--3-(let ring)--3-(let ring)--5-5-5-5-5-5-5-3-3-3-3-3-3-3--|
A-|--5-(let ring)--5-(let ring)--3-3-3-3-3-3-3-1-1-1-1-1-1-1--|
E-|--x-------------x------------------------------------------|

Guitar 1
e-|--x--------------------------------------------------------------------------|
B-|--x--------------------------------------------------------------------------|
G-|--x---------------------------------------------5-5-5-5-5-5-5-3-3-3-3-3-3-3--|
D-|--3---------------------------------------------5-5-5-5-5-5-5-3-3-3-3-3-3-3--|
A-|--5---------------------------------------------3-3-3-3-3-3-3-1-1-1-1-1-1-1--|
E-|--x--------------------------------------------------------------------------|

Guitar 2
e-|-----------------------------------------------------------------------------|
B-|-----------------------------------------------------------------------------|
G-|----------------------------5-7-----------------5-5-5-5-5-5-5-3-3-3-3-3-3-3--|
D-|--0-3--0-5-6-5-3-0-3--0-5-6-----0-3--0-5-6-5-3--5-5-5-5-5-5-5-3-3-3-3-3-3-3--|
A-|------------------------------------------------3-3-3-3-3-3-3-1-1-1-1-1-1-1--|
E-|-----------------------------------------------------------------------------|


Guitar 1
e-|--x------------------------------x-------------------------------------------|
B-|--x------------------------------x-------------------------------------------|
G-|--x------------------------------x--------------5-5-5-5-5-5-5-3-3-3-3-3-3-3--|
D-|--3------------------------------3--------------5-5-5-5-5-5-5-3-3-3-3-3-3-3--|
A-|--5------------------------------5--------------3-3-3-3-3-3-3-1-1-1-1-1-1-1--|
E-|--x------------------------------x-------------------------------------------|

Guitar 2
e-|-----------------------------------------------------------------------------|
B-|-----------------------------------------------------------------------------|
G-|----------------------------5-7--7-5----5-------5-5-5-5-5-5-5-3-3-3-3-3-3-3--|
D-|--0-3--0-5-6-5-3-0-3--0-5-6-----------7---7-6-5-5-5-5-5-5-5-5-3-3-3-3-3-3-3--|
A-|------------------------------------------------3-3-3-3-3-3-3-1-1-1-1-1-1-1--|
E-|-----------------------------------------------------------------------------|

Verse 1:
"Here we are again..."
Guitar 1 & 2
e-|------------------------------------------------------------|
B-|------------------------------------------------------------|
G-|--7-7--------10-10-----5-5------7-7--------10-10-----13-13--|
D-|--7-7--------10-10-----5-5------7-7--------10-10-----13-13--|
A-|--5-5---------8--8-----3-3------5-5---------8--8-----11-11--|
E-|------------------------------------------------------------|

"One step forward..."
Guitar 1 & 2
e-|----------------------------------------------------------------------------|
B-|----------------------------------------------------------------------------|
G-|--7--7-7-7-7-7--7-7-7-5--5-5-5-5-5--5-5-5-4--4-4-4-4-4--4-4-4---------------|
D-|--7--7-7-7-7-7--7-7-7-5--5-5-5-5-5--5-5-5-4--4-4-4-4-4--4-4-4---3------5----|
A-|--5--5-5-5-5-5--5-5-5-3--3-3-3-3-3--3-3-3-2--2-2-2-2-2--2-2-2-1---1--3---3--|
E-|----------------------------------------------------------------------------|

Guitar 1
e-|--x------------------------------x-------------------------------------------|
B-|--x------------------------------x-------------------------------------------|
G-|--x------------------------------x--------------5-5-5-5-5-5-5-3-3-3-3-3-3-3--|
D-|--3------------------------------3--------------5-5-5-5-5-5-5-3-3-3-3-3-3-3--|
A-|--5------------------------------5--------------3-3-3-3-3-3-3-1-1-1-1-1-1-1--|
E-|--x------------------------------x-------------------------------------------|

Guitar 2
e-|-----------------------------------------------------------------------------|
B-|-----------------------------------------------------------------------------|
G-|----------------------------5-7-----------------5-5-5-5-5-5-5-3-3-3-3-3-3-3--|
D-|--0-3--0-5-6-5-3-0-3--0-5-6-----0-3--0-5-6-5-3--5-5-5-5-5-5-5-3-3-3-3-3-3-3--|
A-|------------------------------------------------3-3-3-3-3-3-3-1-1-1-1-1-1-1--|
E-|-----------------------------------------------------------------------------|

Guitar 1
e-|--x------------------------------x-------------------------------------------|
B-|--x------------------------------x-------------------------------------------|
G-|--x------------------------------x--------------5-5-5-5-5-5-5-3-3-3-3-3-3-3--|
D-|--3------------------------------3--------------5-5-5-5-5-5-5-3-3-3-3-3-3-3--|
A-|--5------------------------------5--------------3-3-3-3-3-3-3-1-1-1-1-1-1-1--|
E-|--x------------------------------x-------------------------------------------|

Guitar 2
e-|-----------------------------------------------------------------------------|
B-|-----------------------------------------------------------------------------|
G-|----------------------------5-7--7-5----5-------5-5-5-5-5-5-5-3-3-3-3-3-3-3--|
D-|--0-3--0-5-6-5-3-0-3--0-5-6-----------7---7-6-5-5-5-5-5-5-5-5-3-3-3-3-3-3-3--|
A-|------------------------------------------------3-3-3-3-3-3-3-1-1-1-1-1-1-1--|
E-|-----------------------------------------------------------------------------|

Verse 2:
"Here we are again..."
Guitar 1 & 2
e-|------------------------------------------------------------|
B-|------------------------------------------------------------|
G-|--7-7--------10-10-----5-5------7-7--------10-10-----13-13--|
D-|--7-7--------10-10-----5-5------7-7--------10-10-----13-13--|
A-|--5-5---------8--8-----3-3------5-5---------8--8-----11-11--|
E-|------------------------------------------------------------|
[ Tab from: http://www.guitartabs.cc/tabs/h/home_grown/this_way_tab_ver_2.html ]
"One step forward..."
Guitar 1 & 2
e-|----------------------------------------------------------------------------|
B-|----------------------------------------------------------------------------|
G-|--7--7-7-7-7-7--7-7-7-5--5-5-5-5-5--5-5-5-4--4-4-4-4-4--4-4-4---------------|
D-|--7--7-7-7-7-7--7-7-7-5--5-5-5-5-5--5-5-5-4--4-4-4-4-4--4-4-4---3------5----|
A-|--5--5-5-5-5-5--5-5-5-3--3-3-3-3-3--3-3-3-2--2-2-2-2-2--2-2-2-1---1--3---3--|
E-|----------------------------------------------------------------------------|

Chorus:
"I wish it didn't have to be this way..."
Guitar 1 & 2
e-|-----------------------------------------------------------|
B-|-----------------------------------------------------------|
G-|----------------5--5-5--5-5-5-3--3-3--3-3-3-3--3-3--5-3-3--|
D-|--3--3-3--3-3-3-5--5-5--5-5-5-3--3-3--3-3-3-3--3-3--5-3-3--|
A-|--3--3-3--3-3-3-3--3-3--3-3-3-1--1-1--1-1-1-1--1-1--3-1-0--|
E-|--1--1-1--1-1-1--------------------------------------------|

Guitar 1 & 2
e-|-----------------------------------------------------------|
B-|-----------------------------------------------------------|
G-|----------------5--5-5--5-5-5-3--3-3--3-3-3-3--3-3--5-3-3--|
D-|--3--3-3--3-3-3-5--5-5--5-5-5-3--3-3--3-3-3-3--3-3--5-3-3--|
A-|--3--3-3--3-3-3-3--3-3--3-3-3-1--1-1--1-1-1-1--1-1--3-1-0--|
E-|--1--1-1--1-1-1--------------------------------------------|

Guitar 1
e-|-----------------------------------------------------------|
B-|-----------------------------------------------------------|
G-|----------------5--5-5--5-5-5-7--7-7--7-7-7-3--3-3--3-3-3--|
D-|--3--3-3--3-3-3-5--5-5--5-5-5-7--7-7--7-7-7-3--3-3--3-3-3--|
A-|--3--3-3--3-3-3-3--3-3--3-3-3-5--5-5--5-5-5-1--1-1--1-1-1--|
E-|--1--1-1--1-1-1--------------------------------------------|

Guitar 2
e-|-----------------------------------------------------------|
B-|-----------------------------------------------------------|
G-|----------------5--5-5--5-5-5-7--7-7--7-7-7----------------|
D-|--3--3-3--3-3-3-5--5-5--5-5-5-7--7-7--7-7-7-0--2-3--5-5-7--|
A-|--3--3-3--3-3-3-3--3-3--3-3-3-5--5-5--5-5-5----------------|
E-|--1--1-1--1-1-1--------------------------------------------|

Guitar 1 & 2
e-|-----------------------------------------------------------|
B-|-----------------------------------------------------------|
G-|----------------5--5-5--5-5-5-3--3-3--3-3-3-3--3-3--3-3-3--|
D-|--3--3-3--3-3-3-5--5-5--5-5-5-3--3-3--3-3-3-3--3-3--3-3-3--|
A-|--3--3-3--3-3-3-3--3-3--3-3-3-1--1-1--1-1-1-1--1-1--1-1-1--|
E-|--1--1-1--1-1-1--------------------------------------------|

Guitar 1
e-|--------------------------|
B-|--------------------------|
G-|--7-----------------------|
D-|--7-----------------------|
A-|--5-----------------------|
E-|--------------------------|

Guitar 2
e-|--------------------------|
B-|--------------------------|
G-|--11----------10----------|
D-|--------------------------|
A-|---9-----------8----------|
E-|--------------------------|

Solo
Guitar 1
e-|----------------------------------------------------------------------------|
B-|----------------------------------------------------------------------------|
G-|--7-------------------10------------------10---------3--------5--------7-7--|
D-|--7-------------------10------------------10---------3--------5--------7-7--|
A-|--5--------------------7-------------------8---------1--------3--------5-5--|
E-|----------------------------------------------------------------------------|

Guitar 2
e-|----------------------------------------------------------15-17-15------------|
B-|------------------------------------------18-18-18--15-18----------18-15-15\--|
G-|--19-19-19--19-19-19--14-14-14--14-14-14--------------------------------------|
D-|------------------------------------------------------------------------------|
A-|------------------------------------------------------------------------------|
E-|------------------------------------------------------------------------------|

Kick Ass Bass Solo

Chorus:
"I wish it didn't have to be this way..."
Guitar 1 & 2
e-|-----------------------------------------------------------|
B-|-----------------------------------------------------------|
G-|----------------5-5-----------3--3-3--3-3-3-3--3-3--5-3-3--|
D-|--3-3-----------5-5-----------3--3-3--3-3-3-3--3-3--5-3-3--|
A-|--3-3-----------3-3-----------1--1-1--1-1-1-1--1-1--3-1-0--|
E-|--1-1------------------------------------------------------|

Guitar 1 & 2
e-|-----------------------------------------------------------|
B-|-----------------------------------------------------------|
G-|----------------5--5-5--5-5-5-3--3-3--3-3-3-3--3-3--5-3-3--|
D-|--3--3-3--3-3-3-5--5-5--5-5-5-3--3-3--3-3-3-3--3-3--5-3-3--|
A-|--3--3-3--3-3-3-3--3-3--3-3-3-1--1-1--1-1-1-1--1-1--3-1-0--|
E-|--1--1-1--1-1-1--------------------------------------------|

Guitar 1
e-|-----------------------------------------------------------|
B-|-----------------------------------------------------------|
G-|----------------5--5-5--5-5-5-7--7-7--7-7-7-3--3-3--3-3-3--|
D-|--3--3-3--3-3-3-5--5-5--5-5-5-7--7-7--7-7-7-3--3-3--3-3-3--|
A-|--3--3-3--3-3-3-3--3-3--3-3-3-5--5-5--5-5-5-1--1-1--1-1-1--|
E-|--1--1-1--1-1-1--------------------------------------------|

Guitar 2
e-|-----------------------------------------------------------|
B-|-----------------------------------------------------------|
G-|----------------5--5-5--5-5-5-7--7-7--7-7-7----------------|
D-|--3--3-3--3-3-3-5--5-5--5-5-5-7--7-7--7-7-7-0--2-3--5-5-7--|
A-|--3--3-3--3-3-3-3--3-3--3-3-3-5--5-5--5-5-5----------------|
E-|--1--1-1--1-1-1--------------------------------------------|

Guitar 1 & 2
e-|-----------------------------------------------------------|
B-|-----------------------------------------------------------|
G-|----------------5--5-5--5-5-5-3--3-3--3-3-3-3--3-3--3-3-3--|
D-|--3--3-3--3-3-3-5--5-5--5-5-5-3--3-3--3-3-3-3--3-3--3-3-3--|
A-|--3--3-3--3-3-3-3--3-3--3-3-3-1--1-1--1-1-1-1--1-1--1-1-1--|
E-|--1--1-1--1-1-1--------------------------------------------|

Guitar 1
e-|--------------------------|
B-|--------------------------|
G-|--7-----------------------|
D-|--7-----------------------|
A-|--5-----------------------|
E-|--------------------------|(pick slide)

Guitar 2
e-|--------------------------|
B-|--------------------------|
G-|--11----------10----------|
D-|--------------------------|
A-|---9-----------8----------|
E-|--------------------------|(pick slide)

Guitar 1 & 2
e-|----------------------|
B-|----------------------|
G-|-----------------7-7--|
D-|--0-3--0-5-6-5-3-7-7--|
A-|-----------------5-5--|
E-|----------------------|
Comments