Home Grown - Surfer Girl Chords & Tabs

 

Surfer Girl Chords & Tabs

Home Grown Chords & Tabs

Version: 3 Type: Bass Tab 0 ratings
1 star 2 stars 3 stars 4 stars 5 stars
comments

Surfer Girl Bass Tab

This is such a rad song; someone needed to tab the solo right. 

G|------------------------------|
D|----------------7--9--10-12-10|
A|------7--8--10----------------|
E|8-10--------------------------|
[ Tab from: http://www.guitartabs.cc/tabs/h/home_grown/surfer_girl_btab_ver_3.html ]
G|10-9-7-9-7--------------------|
D|-----------10-9---------------|
A|------------------------------|
E|------------------------------|

G|-------------------10-9-7-9-7----|
D|5--------------7-9------------10-|
A|---------------------------------|
E|---------------------------------|

G|---------------------------------|
D|7--------------4-----------------|
A|---------------------------------|
E|---------------------------------|
Comments