Home Grown - Shirley D Pressed Chords & Tabs

 

Shirley D Pressed Chords & Tabs

Home Grown Chords & Tabs

Version: 1 Type: Bass Tab 0 ratings
1 star 2 stars 3 stars 4 stars 5 stars
comments

Shirley D Pressed Bass Tab

Band: Homegrown
Song: Shirley D. Pressed
Artist: Johnee
Tabbed By: Jay Fairman

intro
G---------------------------------------------------
D-----5555----5555----5555--7--5555
A--5----------5----------5-----------------------   (2x)
E---------------------------------------------------

(intro+verse+chorus)
G---------------------------------------------------------
D---------------------------------------------------------
A-----3333----3333----3333---5---3333----   (2x)
E--3----------3----------3-----------------------------
[ Tab from: http://www.guitartabs.cc/tabs/h/home_grown/shirley_d_pressed_btab.html ]
(intro+chorus)
G--------------------------------------------------
D--------------------------------------------------
A---555555555555555555555555
E--------------------------------------------------

Bass Interlude (I'm unsure about this)
G----------------------------------------------------
D--------75-----77----99----77----797-----
A--75----------------------------------------------
E----------------------------------------------------

Pre-Chorus
G---------------------------------------------------
D--------------------------------------------------
A-------------333----------------555----------   (2x)
E-333-----------------555---------------------

Thats about it. Somebody please correct the bass interlude and email it 
to me. Thanks.

fatcow9@hotmail.com

Comments