Home Grown - She Dont Care Chords & Tabs

 

She Dont Care Chords & Tabs

Home Grown Chords & Tabs

Version: 1 Type: Tab 0 ratings
1 star 2 stars 3 stars 4 stars 5 stars
comments

She Dont Care Tab

   
tabbed by jenson
email JOn@h3k.net




[ Tab from: http://www.guitartabs.cc/tabs/h/home_grown/she_dont_care_tab.html ]
Intro:  Both Guitars  (4x)
e|-------------------------|
B|-------------------------|
G|7-7-----4-4-4------------|
D|7-7-4-4-4-4-4-4\5-5------|
A|5-5-4-4-2-2-2-4\5-5------|
E|----2-2-------2\3-3------|
End of Intro:  Both Guitars
e|-------------|
B|-------------|
G|-------------|
D|4-4-4-5-5-5--|
A|4-4-4-5-5-5--|
E|2-2-2-3-3-3--|
  PM~     PM~
Verse:  Both Guitars  (2x)  (I don't want this...)
e|----------------------------------------------------------------------------|
B|----------------------------------------------------------------------------|
G|------------------------7-7-7-7-7-7-4-4-4-4-4-4-----------------------------|
D|5-5-5-5-5-5-5-5-5-5-5-5-7-7-7-7-7-7-4-4-4-4-4-4-5-5-5-5-5-5-5-5-5-5-5-5-----|
A|5-5-5-5-5-5-5-5-5-5-5-5-5-5-5-5-5-5-2-2-2-2-2-2-5-5-5-5-5-5-5-5-5-5-5-5-----|
E|3-3-3-3-3-3-3-3-3-3-3-3-------------------------3-3-3-3-3-3-3-3-3-3-3-3-----|
  PM~   PM~   PM~   PM~   PM~   PM~   PM~   PM~   PM~   PM~   PM~   PM~
Verse Cont'd:  Both Guitars
e|---------------------------|
B|---------------------------|
G|---------------------------|
D|5-5-5-5-5-5-2-2-2-2-2-2----|
A|5-5-5-5-5-5-2-2-2-2-2-2----|
E|2-2-2-2-2-2-0-0-0-0-0-0----|
  PM~   PM~   PM~   PM~
Verse Cont'd:  Both Guitars  (While I burn inside...)
e|----------------------------------------------------------------------------|
B|----------------------------------------------------------------------------|
G|----------------------------2-2-2-2-2-2-2-2---------------------------------|
D|5-5-5-5-5-5-5-5-5-5-5-5-5-5-2-2-2-2-2-2-2-2---------------------------------|
A|5-5-5-5-5-5-5-5-5-5-5-5-5-5-0-0-0-0-0-0-0-0---------------------------------|
E|3-3-3-3-3-3-3-3-3-3-3-3-3-3-------------------------------------------------|
Fill:  Guitar 2
e|---------------|
B|-3-2---3-2-----|
G|-----2-----3---|
D|---------------|
A|---------------|
E|---------------|
Pre Chorus:  Both Guitars  (Answer me....)
e|----------------------------------------------------------------------------|
B|----------------------------------------------------------------------------|
G|4-4-----------------4-4-----------------4-4---------------------------------|
D|4-4-5-5-7-7-7-7-7-7-4-4-5-5-7-7-7-7-7-7-4-4-5-5-7-7-7-7-7-7-4-4-4-4-4-4-4-4-|
A|2-2-5-5-7-7-7-7-7-7-2-2-5-5-7-7-7-7-7-7-2-2-5-5-7-7-7-7-7-7-4-4-4-4-4-4-4-4-|
E|----3-3-5-5-5-5-5-5-----3-3-5-5-5-5-5-5-----3-3-5-5-5-5-5-5-2-2-2-2-2-2-2-2-|
Pre Chorus Cont'd:  Both Guitars
e|---------------------|
B|---------------------|
G|---------------------|
D|5-5-5-5-5-5-5-5------|
A|5-5-5-5-5-5-5-5------|
E|3-3-3-3-3-3-3-3------|
Chorus:  Guitar 1 (I don't wanna be the one to change your mind...)
e|----------------------------------------------------------------------------|
B|----------------------------------------------------------------------------|
G|7-7-7-7-7-------------4-4-4-4-4-3-3-3-3-3-3-7-7-7-7-7-----------------------|
D|7-7-7-7-7-4-4-4-4-4-4-4-4-4-4-4-3-3-3-3-3-3-7-7-7-7-7-7-7-7-7-7-7-----------|
A|5-5-5-5-5-4-4-4-4-4-4-2-2-2-2-2-1-1-1-1-1-1-5-5-5-5-5-7-7-7-7-7-7-----------|
E|----------2-2-2-2-2-2---------------------------------5-5-5-5-5-5-----------|
Chorus Cont'd:  Guitar 1
e|-----------------------------|
B|-----------------------------|
G|-----------------------------|
D|5-5-5-5-5-5-5-5-5-5-5-5--7x--|
A|5-5-5-5-5-5-5-5-5-5-5-5--7x--|
E|3-3-3-3-3-3-3-3-3-3-3-3--5x--|
Chorus:  Guitar 2  (I don't wanna be the one to change your mind...)
e|----------------------------------------------------------------------------|
B|----------------------------------------------------------------------------|
G|7-7-7-7-7-------------4-4-4-4-4-3-3-3-3-3-3-7-7-7-7-7-9-9-9-9-9-9-----------|
D|7-7-7-7-7-4-4-4-4-4-4-4-4-4-4-4-3-3-3-3-3-3-7-7-7-7-7-9-9-9-9-9-9-----------|
A|5-5-5-5-5-4-4-4-4-4-4-2-2-2-2-2-1-1-1-1-1-1-5-5-5-5-5-7-7-7-7-7-7-----------|
E|----------2-2-2-2-2-2-------------------------------------------------------|
Chorus Cont'd:  Guitar 2
e|-----------------------------|
B|-----------------------------|
G|-----------------------------|
D|5-5-5-5-5-5-5-5-5-5-5-5--7x--|
A|5-5-5-5-5-5-5-5-5-5-5-5--7x--|
E|3-3-3-3-3-3-3-3-3-3-3-3--5x--|
Repeat Intro:  (2x) 
Repeat Verse:  
Repeat Fill
Repeat Pre Chorus
Repeat Chorus
Bridge:  Guitar 1  (If you don't care, cuz I still care...)
e|----------------------------------------------------------------------------|
B|----------------------------------------------------------------------------|
G|2-2-2-2-2-2-2-2-2-2-2-2-4-4-4-4-4-4-4-4-4-4-4-4-7-7-7-7-7-7-7-7-7-7-7-7-----|
D|2-2-2-2-2-2-2-2-2-2-2-2-4-4-4-4-4-4-4-4-4-4-4-4-7-7-7-7-7-7-7-7-7-7-7-7-----|
A|0-0-0-0-0-0-0-0-0-0-0-0-2-2-2-2-2-2-2-2-2-2-2-2-5-5-5-5-5-5-5-5-5-5-5-5-----|
E|----------------------------------------------------------------------------|
Bridge Cont'd:  Guitar 1  (I still care, and I'm still here)
e|----------------------------------------------------------------------------|
B|----------------------------------------------------------------------------|
G|----------------------------------------------------------------------------|
D|5-5-5-5-5-5-5-5-5-5-5-5-7-7-7-7-7-7-7-7-7-7-7-7-----------------------------|
A|5-5-5-5-5-5-5-5-5-5-5-5-7-7-7-7-7-7-7-7-7-7-7-7-----------------------------|
E|3-3-3-3-3-3-3-3-3-3-3-3-5-5-5-5-5-5-5-5-5-5-5-5-----------------------------|
Bridge:  Guitar 2  (All 5's are harmonics)  (If you don't care...)
e|----------------------------------------------------------------------------|
B|----------------------------------------------------------------------------|
G|2-2-2-2-2-2-2-2-2-2-2-2---5-------5-------5------5~-------------------------|
D|2-2-2-2-2-2-2-2-2-2-2-2-----5-------5-------5-------------------------------|
A|0-0-0-0-0-0-0-0-0-0-0-0-------5-------5-------5-----------------------------|
E|----------------------------------------------------------------------------|
Solo:  Guitar 1  (3x)
e|----------------------------------------------------------------------------|
B|----------------------------------------------------------------------------|
G|4-4-4-4-4-4-------------7-7-7-7-7-7-----------------------------------------|
D|4-4-4-4-4-4-5-5-5-5-5-5-7-7-7-7-7-7-7-7-7-7-7-7-----------------------------|
A|2-2-2-2-2-2-5-5-5-5-5-5-5-5-5-5-5-5-7-7-7-7-7-7-----------------------------|
E|------------3-3-3-3-3-3-------------5-5-5-5-5-5-----------------------------|
Solo Cont'd:  Guitar 1
e|----------------------------------------------------------------------------|
B|----------------------------------------------------------------------------|
G|----------------------------------------------------------------------------|
D|5-5-5-5-5--5-5-5-5-5--5-5-5-5-5---7~----------------------------------------|
A|5-5-5-5-5--5-5-5-5-5--5-5-5-5-5---7~----------------------------------------|
E|3-0-3-0-3--3-0-3-0-3--3-0-3-0-3---5~----------------------------------------|
Solo:  Guitar 2  (3x)
e|----------------------------------------10-9----10-9------------------------|
B|----------------------------10----10---------10------10---------------------|
G|11---11---12---12----12-----------------------------------------------------|
D|---9----9----9-----9-----9-----9-----9--------------------------------------|
A|----------------------------------------------------------------------------|
E|----------------------------------------------------------------------------|
Solo Cont'd:  Guitar 2
e|14h15p14-12h14p12-10--10h12p10-9h10p9-7--7h9p7-5h7p5-3--5~------------------|
B|----------------------------------------------------------------------------|
G|----------------------------------------------------------------------------|
D|----------------------------------------------------------------------------|
A|----------------------------------------------------------------------------|
E|----------------------------------------------------------------------------|
Next Part:  Both Guitars  (I don't wanna be the one...)
e|---------------------------------|
B|---------------------------------|
G|-7~------------------------------|
D|-7~---------------------5~-------|
A|-5~---------------------5~-------|
E|------------------------3~-------|
  Clean                    Distorted      
Repeat Chorus (1x)
Chorus Cont'd:  Both Guitars
e|----------------------------------------------------------------------------|
B|----------------------------------------------------------------------------|
G|7-7-7-7-7-7-7-7-------------------------------------------------------------|
D|7-7-7-7-7-7-7-7-4-4-4-4-4-4-4-4-5-5-5-5-5-5-5-5-7-7-7-7-7-7-7-7-------------|
A|5-5-5-5-5-5-5-5-4-4-4-4-4-4-4-4-5-5-5-5-5-5-5-5-7-7-7-7-7-7-7-7-------------|
E|----------------2-2-2-2-2-2-2-2-3-3-3-3-3-3-3-3-5-5-5-5-5-5-5-5-------------|
Chorus Cont'd:  Both Guitars
e|----------------------------------------------------------------------------|
B|----------------------------------------------------------------------------|
G|5-5-5-5-5-5-5-5-------------------------------------------------------------|
D|5-5-5-5-5-5-5-5-4-4-4-4-4-4-4-4-5-5-5-5-5-5-5-5-7-7-7-7-7-7-7-7-------------|
A|2-2-2-2-2-2-2-2-4-4-4-4-4-4-4-4-5-5-5-5-5-5-5-5-7-7-7-7-7-7-7-7-------------|
E|----------------2-2-2-2-2-2-2-2-3-3-3-3-3-3-3-3-5-5-5-5-5-5-5-5-------------|
Ending:  Both Guitars
e|----------------------------------------------------------------------------|
B|----------------------------------------------------------------------------|
G|----------------------------------------------------------------------------|
D|5-5-5-5-5--5-5-5-5-5--5-5-5-5-5--5-5-5-5-5~---------------------------------|
A|5-5-5-5-5--5-5-5-5-5--5-5-5-5-5--5-5-5-5-5~---------------------------------|
E|3-0-3-0-3--3-0-3-0-3--3-0-3-0-3--3-0-3-0-3~---------------------------------|

 
 
Comments