Home Grown - She Dont Care Chords & Tabs

 

She Dont Care Chords & Tabs

Home Grown Chords & Tabs

Version: 1 Type: Bass Tab 0 ratings
1 star 2 stars 3 stars 4 stars 5 stars
comments

She Dont Care Bass Tab

She Don't Care- Home Grown
Tabbed By Jesse Krupocin	
JK976783@aol.com, email with corrections or requests

Intro
Gb :---------------------------|
Db :---------------------------|
Ab :55----2----22p0------------|
Eb :---22----------2h333-------|

Main Verse
Gb :------------------------------------------------|
Db :------------------------------------------------|
Ab :-------5555555522222222-------------------------|
Eb :3333333----------------333333332222222200000000-|

Main Verse Continuation
Gb :--------------------------------------|
Db :--------------------------------------|
Ab :--------5555555522222222--------------|
Eb :33333333----------------3333335555555-|

"Answer me, do you wanna be with or without me..."
Gb :----------------|-----------------------|
Db :-----------5----|-*Play Last Time Only*-|
Ab :22------4h5-----|-----------------------|
Eb :--335--5--------|2-2-2-2-3-3-3-3--------|
[ Tab from: http://www.guitartabs.cc/tabs/h/home_grown/she_dont_care_btab.html ]
"I don't want to be the one to change your mind..."		    
Gb :----------------------------------------------------------------|
Db :---------------------222----------------------------222-54-54-5-|
Ab :5555----2221111--555---------------555-----222111555------------|
Eb :----2222-----------------3-33-33-------2222---------------------|

Played at 1:48 in song after line above is played 2nd time
Gb :---------------------------------------------------------|
Db :---------------------------------------------------------|
Ab :-------2222222555555------------22222---555555---22222---|
Eb :5555555-------------333333555555-----333------222-----333|

Continuation of above
Gb :---------------------------------------------------|
Db :----------555---4h5p4h5p4--------------------------|
Ab :5557777999---555---------4-------------------------|
Eb :-----------------------------32323-32323-32323////5|

Let ring during slow part
Ab :5~~--------------|

After Slow Part until end of song
Gb :---------------------------------|
Db :----4444-------------222255555555|
Ab :5555----222211115555-------------|
Eb :---------------------------------|

Continuation of above				End of Song
Gb :|-------------------------------------------------------|
Db :|----------------------------------------54545--54------|
Ab :|555----------555---------------------------------54----|
Eb :|---2223335555---2223335555-32323-32323-------------6~~~|

Comments