Home Grown - Sflb Chords & Tabs

 

Sflb Chords & Tabs

Home Grown Chords & Tabs

Version: 2 Type: Bass Tab 0 ratings
1 star 2 stars 3 stars 4 stars 5 stars
comments

Sflb Bass Tab

   
Song:S.F.L.B.
Band:Homegrown
Album:Act Your Age
tabbed by:Dan Donche



G:--------------------------------------
D:--------------------------------------
A:0h2--0h2--4----------0h2--0h2--4------
E:--------------------------------------


G:--------------------------------------
D:----------------4-4-4-4-4-6-6-6-6-6---
A:4-4-5-6-6-6-6-6-----------------------
E:--------------------------------------

[ Tab from: http://www.guitartabs.cc/tabs/h/home_grown/sflb_btab_ver_2.html ]
G:-------------
D:-------------
A:4-4-5-6-6-6-6. . . . 
E:-------------


G:----------------------------------------
D:----------------------------------------
A:4-4-4-4-4-2-2-2-2-2-0-0-0-0-0-2-2-2-2-2-
E:----------------------------------------


G:----------------------------------------
D:----------------------------------------
A:0-0-0-0-0-0-0-0-2-2-2-2-2-2-2-2---------
E:----------------------------------------


That's it, it's pretty easy.  Any questions, e-mail me:

DGoblin@hotmail.com




Comments