Home Grown - Last Night Regrets Chords & Tabs

 

Last Night Regrets Chords & Tabs

Home Grown Chords & Tabs

Version: 2 Type: Bass Tab 0 ratings
1 star 2 stars 3 stars 4 stars 5 stars
comments

Last Night Regrets Bass Tab

   
intro
G|---------5-7-9-545-5-7-9-7-9-11-9-11-12*-----------------------------------|
D|---5-4-2-------------------------------------------------------------------|
A|-3-------------------------------------------------------------------------|
E|---------------------------------------------------------------------------|

VERSE
G|---------------------------------------------|
D|---------------------------------------------|
A|----5>--------5>-3>-5>-777-55----5>----3>-5>-|
E|-3>----0>-2-3-----------------3>----0>-------|

PRE-CHORUS
G|---------------------------------|
D|---------------------------------|
A|-222-333-5>-222-333-5>-222-333-5-|
E|---------------------------------|

CHORUS
G|----------------------|
D|----------------------|
A|----3>----5>----3>-5>-|
E|-0>----0>----0>-------|

INTRO
VERSE
PRE-CHORUS
CHORUS

BRIDGE 1
G|----------------------|
D|----------------------|
A|-3>----5>-7>-3>----5>-|
E|----3>----------3>----|
[ Tab from: http://www.guitartabs.cc/tabs/h/home_grown/last_night_regrets_btab_ver_2.html ]
BRIDGE 2
G|----------------------------------------------------------|
D|-------5-3-----------------------------------------5-3----|
A|-333-5-----------2-3-5-555-5-4-3-----------3-333-5-----5>-|
E|-----------333-3-----------------0-000-3-5----------------|

BRIDGE 3
G|-------------------------------------------------------------|
D|---------------------------------------7---7---9---9---9---9-|
A|-3>-5>-7>-3>-5>-7>-3>-5>-7>-3>-5>-7>-5---5---7---7---7---7---|
E|-------------------------------------------------------------|

BRIDGE 4
G|-------------------------------------------------------------------------|
D|-----------------------------------------------------[ GUITAR ONLY ]-----|
A|-7>-5-2>-7>-5-2>-7>-5-2>-5555-7777-99999999/15>-15*-------------------5>-|
E|-------------------------------------------------------------------------|

G|--------------------------------------------------------------------------|
D|-------5-3-----------------------------------------5-3----7-5-4-3---------|
A|-333-5-----------2-3-5-555-5-4-3-----------3-333-5-----5>---------7-5-7-5-|
E|-----------333-3-----------------0-000-3-5--------------------------------|

BRIDGE 2

END ON
G|---|
D|---|
A|---|
E|-0-|

===============================================================================
Comments