Home Grown - I Love You Not Chords & Tabs

 

I Love You Not Chords & Tabs

Home Grown Chords & Tabs

Version: 1 Type: Tab 0 ratings
1 star 2 stars 3 stars 4 stars 5 stars
comments

I Love You Not Tab

song: I Love You, Not
artist: Home Grown
album: Kings of Pop
tune down 1/2 step

 intro
E-----------------------------------------------------------------|
B-----------------------------------------------------------------|
G--5-5-5-5-5-5-5-5-5-5-5-5-5-5-5-5-5-5-5-5-5-5-5-5--5-5-5-5-5-5---|
D--5-5-5-5-5-5-5-5-5-5-5-5-5-5-5-5-5-5-5-5-4-4-4-4--5-5-5-5-5-5---|
A--3-3-3-3-X-X-X-X-3-3-3-3-X-X-X-X-3-3-3-3-3-3-3-3----------------|
E----------3-3-3-3---------3-3-3-3--------------------------------|

 before verse riff
E----------------------      -------------|
B----------------------      -------------|
G--5-5-------2-2-------      --2-2--------|
D--5-5--5-5--2-2--3-3-- (2X) --0-0--3-3---|
A--3-3--5-5--0-0--3-3--      --0-0--3-3---|
E-------3-3-------1-1--      -------1-1---|
                             not sure about 
                             this part.
[ Tab from: http://www.guitartabs.cc/tabs/h/home_grown/i_love_you_not_tab.html ]
 verse
E----------------------------------------| let first chord ring out for a 
B----------------------------------------| while then pm and strum the last
G--5------------------5------------------| 3 chords
D--5------------------5----------5---3---|
A--3------------------3----------5---3---|
E--------------------------------3---1---|

 pre-chorus      chorus
E--------------|------------------------------|
B--------------|------------------------------|
G--------------|--5-5-------2-2-2-2-----------|
D--3-3-3-4-5---|--5-5--5-5--2-2-2-2-3-3-3-3---|
A--3-3-3-4-5---|--3-3--5-5--0-0-0-0-3-3-3-3---|
E--1-0-1-2-3---|-------3-3----------1-1-1-1---|

 bridge
E------------------|
B------------------|
G------------------| this is just the chords im too lazy to write the 
D--7---5---3---5---| strumming pattern.
A--7---5---3---5---|
E--5---3---1---3---|

u can kinda of mimic the solo usuing an a minor pentonic scale shown below.

 A minor pent. box
E-------------------------5-8-10---|
B------------------5-8-10----------|
G--------------5-7-----------------| just play around with those notes and
D----------5-7---------------------| you'll get a nice sounding solo. if ur
A------5-7-------------------------| as good as i am you'll be able to get 
E--5-8-----------------------------| a solo that sounds like the recording.

thats basically the whole song. its a really good song by a really good band
and i suggest u go get the album. actually u should get all their albums.
Comments