Home Grown - Get A Job Chords & Tabs

 

Get A Job Chords & Tabs

Home Grown Chords & Tabs

Version: 1 Type: Bass Tab 0 ratings
1 star 2 stars 3 stars 4 stars 5 stars
comments

Get A Job Bass Tab

------------------------------------
Get a Job / Home Grown
------------------------------------

By:Carlos Pino

intro
G|----------------------------------------------------------------------|
D|----------------------------------------------------------------------|
A|-----4--5----------4-5----------4-5-----------------4------------|
E|-5----------0--5---------0--5---------0--4--7--5------0-0-----|

intro 2- plays lots of times
G|-----------------------------------------------------------------------------------|
D|---------------------------------------------------------------hey hey hey!-|
A|----------5-5-5-7-7-7-5-5-5---------5-5-5-7-7-6-5----------------------|
E|-5-5-5---------------------------5-5-5-----------------------------------------|

verse1
G|--------------------------------------------------------------------|
D|--------------------------------------------------------------------|
A|----------------------5-5-5-5-5-5-5-5-7-7-7-7-7-7-7-7-5-5-5-5-5-5-5-5----|
E|-5-5-5-5-5-5-5-5----------------------------------------------------|
[ Tab from: http://www.guitartabs.cc/tabs/h/home_grown/get_a_job_btab.html ]
verse 2
G|--------------------------------------------------------------------|
D|--------------------------------------------------------------------|
A|----------------------5---5-5-5-5---5-7---7-7-7-7---7-5---5-5-5-5-5-5----|
E|-5-5---5-5-5---5----------------------------------------------------|

prechorus- oh yeah....
G----------------------------------------------------------------------------------|
D|---------------------------------------------------------------------------------|
A|-7-------5------4--------------------------------------------------------------|
E|-------------------------7------------------------------------------------------------|

chorus
G|---------------------------------------------------------------------|
D|--------------------------------------------------------------------|
A|-------7-----------7---5-5-5-5-5-5-5-5-7-7-7-7-7-7-7-7--------------|
E|-5-----------5------------------------------------------------------|

slow part
G|---------------------------------------------------------------------|
D|--------------------------------------------------------------------|
A|------5-5--5-5-5-4------5-5--5-5-5-4-----------5---7-7-7-7------------|
E|-5---------------------5----------------------2---0--------------------------|

intro
intro 2
verse1
verse2
chorus
verse1
verse2
chorus
slowpart
chorus






Comments