Home Grown - Face In The Crowd Chords & Tabs

 

Face In The Crowd Chords & Tabs

Home Grown Chords & Tabs

Version: 1 Type: Tab 0 ratings
1 star 2 stars 3 stars 4 stars 5 stars
comments

Face In The Crowd Tab

"Face in the Crowd"
by Home Grown
from the album "Thats Bussiness"
it was also rerecorded on the ep "Wusappening?!"
but it's played the same way just a wee bit faster.
 INTRO/CHORUS
E----------------|
B----------------|
G--5-------------|
D--5-5-3-3-3-5---|  a couple of times then you end like this
A--3-5-3-3-3-5---|
E----3-1-0-1-3---|

 
E---------------------|
B---------------------|
G--5-5-----12-12-10---|
D--5-5-5-5-12-12-10---|
A--3-3-5-5-10-10--8---|
E------3-3------------|
[ Tab from: http://www.guitartabs.cc/tabs/h/home_grown/face_in_the_crowd_tab.html ]
 
 VERSE (make it skanky)
E---8--8--8--8---------------------------------------|
B---8--8--8--8-12-12-12-12-10-10-10-10-12-12-13-12---|
G--10-10-10-10-12-12-12-12-10-10-10-10-12-12-12-12---|
D--11-11-11-11-12-12-12-12-10-10-10-10-12-12-12-12---|
A----------------------------------------------------|
E----------------------------------------------------|

 PRECHORUS (i didnt put in the strumming)
E----------------------------------------------|
B----------------------------------------------|
G-------5----------5----------5-------5--------|
D--3----5---5---3--5--5--3----5---5---5----5---|
A--3----3---5---3--3--5--3----3---5---3----5---|
E--1--------3---1-----3--1--------3--------3---|

 ska break
E--3-3-3-3-1-1-3-3--|  to play the the ska part where they sing "If i was a 
B--5-5-3-3-1-1-3-3--|  rockstar"etc. just take the prechorus chords and turn 
G--5-5-4-4-2-2-4-4--|  them into the ska chords shown on the left.
D-------------------|
A-------------------|
E-------------------|

just listen to the cd to figure out where the parts go. Im feelin lazy right
now so I'm not gonna do the solo but if you need it or need help figuring out
the parts just email me: Susindrk@aol.com
Comments