Home Grown - Face In The Crowd Chords & Tabs

 

Face In The Crowd Chords & Tabs

Home Grown Chords & Tabs

Version: 1 Type: Bass Tab 0 ratings
1 star 2 stars 3 stars 4 stars 5 stars
comments

Face In The Crowd Bass Tab

Song: Face in the crowd
Artist: Homegrown
Tabbed By: Iambmx
Website: http://www.geocities.com/SunsetStrip/Frontrow/1879/
(I would like the tab for surfer girl or one night stand if any has it)

Chorus
Verse
Prechorus
Chorus
Verse
Prechorus
Chorus
Slow
Slow 2
Chorus


Chorus
G|--------------------------------------------------------------------|
D|-----------------------------------------------5-3------------------|
A|-3------------------3-x 3--then--3----------------------------------|
E|---3-3-0-1-0-1-3-33----------------3-3-0-1-0-1----------------------|

Verse
G|--------------------------------------------------------------------|
D|----2-3-5-----------------------------------------------------------|
A|--3----------2-3-5----0-2-3----5-3-2 -------------------------------|
E|-----------3--------1--------3--------------------------------------|
[ Tab from: http://www.guitartabs.cc/tabs/h/home_grown/face_in_the_crowd_btab.html ]
Prechorus
G|--------------------------------------------------------------------|
D|--------------------------------------------------------------------|
A|-----------3-3-------------3-3-3-------------------------3-3--------|
E|-1-1-1-1-1-----3-3-3-1-1-1-------3-3-3-3-3-3-3-1-1-1-1-1-----3-3-3--|

G|--------------------------------------------------------------------|
D|--------------------------------------------------------------------|
A|--------------------------------------------------------------------|
E|-1-1-1-1-1-3-3-3-3-3-3----------------------------------------------|

Slow
G|--------------------------------------------------------------------|
D|--------------------------------------------------------------------|
A|--same as verse, dummy----------------------------------------------|
E|--------------------------------------------------------------------|

Comments