Home Grown - Come Undone Chords & Tabs

 

Come Undone Chords & Tabs

Home Grown Chords & Tabs

Version: 1 Type: Tab 0 ratings
1 star 2 stars 3 stars 4 stars 5 stars
comments

Come Undone Tab

   
Alright guys this is my first tab. This song is actually a cover, the originial is done by duran duran
anyway, its a fun song to play, listen to it to get the rhythm right,
the second guitar's timing is a little tricky at first
but once you get into, itll be easy.

GUITAR 1 INTRO (Repeat 3x)(E, B C#, D#, F#, E)(Clean, High Tone)
E--------------------------------------------------------------------------------------------------|
B--------------------------------------------------------------------------------------------------|
G--------------------------------------------------------------------------------------------------|
D--------------------------------------------------------------------------------------------------|
A--7--2--4--6--9--7--------------------------------------------------------------------------------|
E--------------------------------------------------------------------------------------------------|

GUITAR 2 INTRO (Start after guitar 1 runs through intro once)(E, B, A, G#, E)(Clean, Low Tone)
E---------------------------------------------------------------------------------------------------|
B---------------------------------------------------------------------------------------------------|
G---------------------------------------------------------------------------------------------------|
D---------------------------------------------------------------------------------------------------|
A--7--2--0---------7--2--0---------7--2--0---------7--2--0------------------------------------------|
E-----------4--0------------4--0-------------4--0------------4--0-----------------------------------|
                               ^
                Distortion and power chords starts here
[ Tab from: http://www.guitartabs.cc/tabs/h/home_grown/come_undone_tab.html ]
VERSE (with palm mutes)(E, B, A, B, E, B, A, B, E, B, A, G#, E, B, A, B)
E--------------------------------------------------------------------------------------------|
B--------------------------------------------------------------------------------------------|
G--5----4----2----4----5----4----2----4----5----4----2---------5----4----2----4--------------|
D--5----4----2----4----5----4----2----4----5----4----2----6----5----4----2----4--------------|
A--7----2----0----2----7----2----0----2----7----2----0----6----7----2----0----2--------------|
E---------------------------------------------------------4----------------------------------|
                                           |______________|
                                           w/o palm mutes

BRIDGE (E, E, B)
E----------------------------|
B----------------------------|
G--5-------5------4----------|
D--5-------5------4----------|
A--7(lr)---7(lr)--2(lr)------|
E----------------------------|
We?ll?To Stay?To the?
Hey?..Stay?..Than?

CHORUS (E, B, A, G#, E, E, B, A, G#, E, E, B, A, G#, E, E, B, A, G#, E, C#)
E-----------------------------------------------------------------------------------------------------------|
B-----------------------------------------------------------------------------------------------------------|
G--9----4----2---------------9----4----2---------------9----4----2--------------9----4----2--------------6--|
D--9----4----2----6----2-----9----4----2-----6----2----9----4----2----6----2----9----4----2----6----2----6--|
A--7----2----0----6----2-----7----2----0-----6----2----7----2----0----6----2----7----2----0----6----2----4--|
E-----------------4----0---------------------4----0-------------------4----0-------------------4----0-------|

OUTRO (C#, D#, E, D#, C#, B, C#)
A--4----6----7----6----4----2----4--------|
E-----------------------------------------|

PLAY ORDER
Intros
Verse
Bridge
Chorus
Verse
Bridge
Chorus
Verse Riff Once
Intro Guitar #2 Riff Once
Outro
Comments