Home Grown - Bonus Track Chords & Tabs

 

Bonus Track Chords & Tabs

Home Grown Chords & Tabs

Version: 1 Type: Bass Tab 0 ratings
1 star 2 stars 3 stars 4 stars 5 stars
comments

Bonus Track Bass Tab

Here is the bass tabs for The Bonus Track off Home Grown's "That's
Business" album

Bonus Track off of Homegrown's That's Business album (bass)

Bass Intro:
G----------------------------------------------------
D----------------------------------------------------
A-----2--2-3--3-4-5-6-7------------------------------
E-3--3-----------------------------------------------
(repeat twice)

Verse:
(same as intro)
[ Tab from: http://www.guitartabs.cc/tabs/h/home_grown/bonus_track_btab.html ]
Chorus:
G----------------------------------------------------
D----------------------------------------------------
A-----2-3-4-3-------2-3-4-3--------------------------
E-3--3----------3--3---------------------------------

Figured out by: Chris Silva (Cootee13)

I don't know if it's perfect, but this is what I came up
with.
E-Mail me if you have any problems.

                                                    [Welcome to GeoCities!]

Comments