Home Grown - Alternative Girl Chords & Tabs

 

Alternative Girl Chords & Tabs

Home Grown Chords & Tabs

Version: 1 Type: Bass Tab 0 ratings
1 star 2 stars 3 stars 4 stars 5 stars
comments

Alternative Girl Bass Tab

-------------------------------------------
Alternative Girl- Home Grown
-------------------------------------------

intro
verse
chorus
verse
chorus
slo one
slo two
bass solo
chorus
end ta da!

intro

G|--------------------------------------------------------------------|
D|--------------------------------------------------------------------|
A|--let guitar go 2x then bust in with--3/10-slide-3/10-slide---------|
E|--------------------------------------------------------------------|

verse- here we go!
G|-------0------------------------------------------------------------|
D|---------3-2-0------2--------4--------------------------------------|
A|----------------3-3---3--5-5---5------------------------------------|
E|-3-3----------------------------------------------------------------|
[ Tab from: http://www.guitartabs.cc/tabs/h/home_grown/alternative_girl_btab.html ]
chorus
G|--------------------------------------------------------------------|
D|--------------------------------------------------------------------|
A|-3-3-3-3-3-------------3-3-3-3-3--5-5-5-5-5-5-5---------------------|
E|-----------3-3-3--33-3----------------------------------------------|

slow part one
G|--------------------------------------------------------------------|
D|--------------------------------------------------------------------|
A|-3-3-3-5-5-5-3-3-3-5-5-5-3-3-3-5-5-5-7-7-7-5-5-4--------------------|
E|--------------------------------------------------------------------|

slow part two
G|--------------------------------------------------------------------|
D|--------------------------------------------------------------------|
A|------3-3-3-0---a bunch then changes to------3-3-3-3-5--------------|
E|-0-0----------3--------------------------0-0------------------------|

bass solo
G|--------------------------------------------------------------------|
D|--------------------------------------------------------------------|
A|-same as verse------------------------------------------------------|
E|--------------------------------------------------------------------|

Comments