Hombres G - Te Quiero Chords & Tabs

 

Te Quiero Chords & Tabs

Hombres G Chords & Tabs

Version: 7 Type: Tab 0 ratings
1 star 2 stars 3 stars 4 stars 5 stars
comments

Te Quiero Tab

   This is the solo that comes on the song and it goes like this

E------------------------------------------------------------------------------|
B--10*12---10*12-12-10---------------------------------------------------------|
G----------------------------11-12-11--9/7----7-9/11-11-11-9*11----------------|
D----------------------------------------------9-------------------------------|
A------------------------------------------------------------------------------|
E------------------------------------------------------------------------------|

[ Tab from: http://www.guitartabs.cc/tabs/h/hombres_g/te_quiero_tab_ver_7.html ]
E------------------------------------------------------------------------------|
B---------------------------------------------------------9/12-12-12-12-10-----|
G-9-9-9*7----------------------------------7-9~9~-7----------------------------|
D-----------9-7-9-7-9------------------7-9-------------------------------------|
A-----------------------9-10-9-7---7-9-----------------------------------------|
E----------------------------------10------------------------------------------|

E--7/10-12-10-10/17-15-14-17-17-17-17/19-17-17/19--19/17-----------------------|
B------------------------------------------------------------------------------|
G------------------------------------------------------------------------------|
D------------------------------------------------------------------------------|
A------------------------------------------------------------------------------|
E------------------------------------------------------------------------------|

E----15-15-15*14-------------10---------12-------10-12/14-14-14--12------------|
B--------------------15--10*12----10*12----10*12-------------------------------|
G------------------------------------------------------------------------------|
D------------------------------------------------------------------------------|
A------------------------------------------------------------------------------|
E------------------------------------------------------------------------------|
Comments