Holst David - Jupiter Chords & Tabs

 

Jupiter Chords & Tabs

Holst David Chords & Tabs

Version: 1 Type: Bass Tab 0 ratings
1 star 2 stars 3 stars 4 stars 5 stars
comments

Jupiter Bass Tab

Jupiter From David Holsts The Planets, 
Comeing in on the 11th mesure with an eight note, The bass sounds 
just like the tuba part with a little of the trumpet.
       12 empty mesures      3 empty mesures
G----------------------|----|---------------|-0--2--|-2-4-0-2-4|
D-2--------------------|----|---------------|------3|----------|
A-/---|=====|----------|-1--|------|====|---|-------|----------|
E-4--------------------|----|---------------|-------|----------|

G----2-0-|-------|-0-2--|-0-|-------|---0-2-|--------|
D--3-----|-3-3-3-|-----3|---|---0-1-|-1-----|----1-3-| 10 MEASURE 
A--------|-------|------|---|-3-----|-------|-3-5----|    REST
E--------|-------|------|---|-------|-------|--------|
[ Tab from: http://www.guitartabs.cc/tabs/h/holst_david/jupiter_btab.html ]
   Faster now
G--3-|--1-|--3-|---|----|----|----|-----|---|----|----|----|---|----||
D----|----|----|---|--3-|--1-|--3-|-----|-3-|--1-|--3-|----|-3-|--1-||
A----|----|----|-3-|----|----|----|--3--|---|----|----|--3-|---|----||
E----|----|----|---|----|----|----|-----|---|----|----|----|---|----||

Piu Mosso
G-3--------|---------|----------|-----------|---------|-------0--|-----0----|
D-/--3---0-|-1--0----|--3----0--|-----------|--3----0-|--1-3-----|--3-----3-|
A-4----3---|-------3-|-----3----|-----0--1--|----3----|----------|----------|
E----------|---------|----------|--3--------|---------|----------|----------|

G----------------|----------||------1-(8 beats)-|--1-1-11-11111-111-1-1-|-----|
D--1--0--1--0----|--------1-||--4---------------|-----------------------|-3-4-|
A--------------3-|-----0----||--/---------------|-----------------------|-----|
E----------------|--3-------||--4---------------|-----------------------|-----|


Its a hard song to get used to the strange timeing of the notes, but listen to
 the tuba and youll get it.
If you want mars of venus email me @ Doozerdud@aol.com

Comments