Hollies - Long Cool Woman Chords & Tabs

 

Long Cool Woman Chords & Tabs

Hollies Chords & Tabs

Version: 2 Type: Tab 0 ratings
1 star 2 stars 3 stars 4 stars 5 stars
comments

Long Cool Woman Tab

   
intro
e-------------------------------------------------------------
b-----------------0-----0-------------------------------------
g---------0-0---0-----0----0---------------------------0------
d-------0-----4-----2----0-----------0-----0-----0---2--------  x 2
a---0h2----------------------2-0---2-----2-----2---0----------
e-0------------------------------3-----0-----3-----------3-2--

Riff 1
e-------------------
b-------------------
g-------------------
d-------------------
a-2-4-5-4-2-2-4-5-4-
e-0-0-0-0-0-0-0-0-0-
[ Tab from: http://www.guitartabs.cc/tabs/h/hollies/long_cool_woman_tab_ver_2.html ]
verse chords
   E7   G   a
e--0----3---0--
b--3----0---2--
g--1----0---2--
d--2----0---2--
a--2----2---0--
e--0----3---0--

chorus chords
   B   a   G   e
e--2-----------0--
b--3-----------0--
g--4-----------0--
d--4-----------2--
a--2-----------2--
e--2-----------0--

Riff 2
e---------------------
b---------------------
g---------------------
d---2-2-2-----0-----0-  x2
a---------0-2---0-2---
e-0-------------------

um, that's pretty much it... email me with questions or anything at
blinkskater2@juno.com
Comments