Hollies - Long Cool Woman Chords & Tabs

 

Long Cool Woman Chords & Tabs

Hollies Chords & Tabs

Version: 1 Type: Tab 2 ratings
1 star 2 stars 3 stars 4 stars 5 stars
comments

Long Cool Woman Tab

   
#----------------------------------PLEASE NOTE---------------------------------#
#This file is the author's own work and represents their interpretation of the #
#song. You may only use this file for private study, scholarship, or research. #
#------------------------------------------------------------------------------##
From: "Chan, Chris C.  x7706" 
Subject: Long Cool Woman In A Black Dress
Date: Thu, 14 Sep 95 12:40:00 EDT


Long Cool Woman In A Black Dress
by the Hollies


Here's my version of the guitar parts.  The notes in
parenthesis are optional.

intro
E:-----------------------------------------------|
B:------------------------0--------0-------------|
G:---------------0-----0--------0--------0-------|
D:---------0--5-----4--------2--------0--------0-|
A:-------2----------------------------------2----|
E:--0--0-----------------------------------------|


E:-----------------------------------------------|
B:-----------------------------------------------|
G:-----------------------------------------------|
D:--------0--------0--------0--------0-----------|
A:-----2--------0--------2--------0----(2)-(0)---|
E:--3--------2--------3--------5--------3---2----|


E:-----------------------------------------------|
B:------------------------0--------0-------------|
G:---------------0-----0--------0--------0-------|
D:---------0--5-----4--------2--------0--------0-|
A:-------2----------------------------------2----|
E:--0--0-----------------------------------------|


E:-----------------------------------------------|
B:-----------------------------------------------|
G:-----------------------------------------------|
D:--------0--------0--------0--------0-----------|
A:-----2--------0--------2--------0----(2)-(0)---|
E:--3--------2--------3--------5--------3---2----|


E:-----------------------------------------------|
B:-----------------------------------------------|
G:-----------------------------------------------|
D:-(2)---------(2)(2)----(2)---------(2)(2)------|
A:--2---4---5---4--2------2---4---5---4--2-------|
E:--0---0---0---0--0------0---0---0---0--0-------|

and etc.


I think the guitar solo goes something like this:

E:-----------------------------------------------|
B:-----------------------------------------------|
G:-----------------------------------------------|
D:--5---5---5------------------------------------|
A:--7---7---7--7---7----------5------------------|
E:-------------7---7---5>h>7---------------------|


E:-----------------------------------------------|
B:-----------------------------------------------|
G:-----------------------------------------------|
D:--5--------------------------------------------|
A:-----7---7--7--7----------5---------5----------|
E:---------7--7--7---5>h>7------5>h>7------------|


E:-----------------------------------------------|
B:-----------------------------------------------|
G:-----------------------------------------------|
D:--5--------------------------------------------|
A:-----7---7--7--7----------5---------5----------|
E:---------7--7--7---5>h>7------5>h>7------------|

E:-----------------------------------------------|
B:-----------------------------------------------|
G:-----------------------------------------------|
D:--5--------------------------------------------|
A:-----7---7--7--7----------5---------5----------|
E:---------7--7--7---5>h>7------5>h>7------------|

E:-----------------------------------------------|
B:-----------------------------------------------|
G:-----------------------------------------------|
D:--5-------------(2)(2)----(2)---------(2)(2)---|
A:-----7---4---5---4--2------2---4---5---4--2----|
E:---------0---0---0--0------0---0---0---0--0----|

and etc.


Please refer to the Phil Comeau submission for lyrics & chords.

 -------------
C.C., chancc1@aplmail.jhuapl.edu

From: comeau@crc.sofkin.ca (Phil Comeau)
Subject: TAB: Long Cool Woman -- Hollies

A while ago I asked for a tab for Long Cool Woman by the Hollies. I received
no replies, so I decided to try for myself. I don't have a recording
of this song, so it's all from memory. Corrections and enhancements
are welcome.

Long Cool Woman -- The Hollies
Tabbed by Phil Comeau (comeau@crc.sofkin.ca)


Intro:
         4/4                                                 3/4
|-------|-------------------------|-------------------------|---------------|
|-------|-------------------------|-------------------------|---------------|
|-------|-------------------------|-------------------------|---------------|
|-------|-------------------------|-------------------------|---------------|
|-----0-|-5---5-4---4-2---2-0---2-|-----0-----0-----0-----0-|-------------0-|
|---2---|---2-----2-----2-----2---|---2-----0-----0-----0---|-----------2---|
|-0-----|-------------------------|-3-----2-----0-----2-----|---------0-----|
[ Tab from: http://www.guitartabs.cc/tabs/h/hollies/long_cool_woman_tab.html ]
 4/4                                                 2/4
|-------------------------|-------------------------|---------------|
|-------------------------|-------------------------|---------------|
|-------------------------|-------------------------|---------------|
|-------------------------|-------------------------|---------------|
|-5---5-4---4-2---2-0---2-|-----0-----0-----0-----0-|---------------|
|---2-----2-----2-----2---|---2-----0-----0-----0---|-------------2-|
|-------------------------|-3-----2-----0-----2-----|-------------0-|

 4/4
|--------------|--------------|
|--------------|--------------|
|--------------|--------------|
|--------------|--------------|
|-2--4--5--4-2-|-2--4--5--4-2-|
|-0--0--0--0-0-|-0--0--0--0-0-|


Verse
|--------------|--------------|--------------|--------------|
|--------------|--------------|--------------|--------------|
|--------------|--------------|--------------|--------------|
|--------------|--------------|-5--5-5--7--7-|--------------| (Repeat)
|-2--4--5--4-2-|-2--4--5--4-2-|-5--5-5--7--7-|-2--4--5--4-2-|
|-0--0--0--0-0-|-0--0--0--0-0-|-3--3-5--5--5-|-0--0--0--0-0-|

Bridge
|----------------|----------------|----------------|----------------|
|----------------|----------------|----------------|----------------|
|----------------|----------------|----------------|----------------|
|-5--5-5--5--5-5-|-5--5-5--5--5-5-|-5--5-5--5--5-5-|-5--5-5--5--5-5-|
|-7--7-7--7--7-7-|-7--7-7--7--7-7-|-5--5-5--5--5-5-|-5--5-5--5--5-5-|
|-5--5-5--5--5-5-|-5--5-5--5--5-5-|-3--3-3--3--3-3-|-3--3-3--3--3-3-|

|----------------|----------------|----------------|--------------|
|----------------|----------------|----------------|--------------|
|----------------|----------------|----------------|--------------|
|-2--2-2--2--2-2-|-5--5-5--5--5-5-|-7--7-7--7--7-7-|--------------|
|-2--2-2--2--2-2-|-5--5-5--5--5-5-|-7--7-7--7--7-7-|-2--2--4--5-4-|
|-0--0-0--0--0-0-|-3--3-3--3--3-3-|-5--5-5--5--5-5-|-0--0--0--0-0-|

|----------------|----------------|----------------|--------------|
|----------------|----------------|----------------|--------------|
|----------------|----------------|----------------|--------------|
|-2--2-2--2--2-2-|-5--5-5--5--5-5-|-7--7-7--7--7-7-|--------------|
|-2--2-2--2--2-2-|-5--5-5--5--5-5-|-7--7-7--7--7-7-|-2--2--4--5-4-|
|-0--0-0--0--0-0-|-3--3-3--3--3-3-|-5--5-5--5--5-5-|-0--0--0--0-0-|

|--------------|----------------|--------------|----------------|
|--------------|----------------|--------------|----------------|
|--------------|----------------|--------------|----------------|
|-5------------|----------------|-5------------|----------------|
|----5h7--7--7-|------5-------5-|----5h7--7--7-|------5-------5-|
|--------------|-5h7-----5h7----|--------------|-5h7-----5h7----|

|--------------|--------------|
|--------------|--------------|
|--------------|--------------|
|--------------|--------------|
|-2--2--4--5-4-|-2--2--4--5-4-|
|-0--0--0--0-0-|-0--0--0--0-0-|  back to verse...


Here's the lyrics and chords. Lyrics were obtained from ftp.uwp.edu;
chords are mine.

E
Saturday night I was downtown
G               A E
Working for the FBI

Sitting in a nest of bad men
G                A      E
Whiskey bottles piling high

E
Bootlegging boozer on the west side
        G               A      E
Full of people who are doing wrong

Just about to call up the DA man
        G                A         E
When I heard this woman singing a song

A7
A pair of 45s made me open my eyes
     G
My temperature started to rise
            E                    G
She was a long cool woman in a black dress
       A             E
Just a 5'9 beautiful tall
                           E
With just one look I was a bad mess
            A                       E
'Cause that long cool woman had it all

E
I saw her heading to the table
       G            A         E
With a tall walking big black cat
E
When Charlie said I hope that you're able boy
         G               A
Well I'm telling you she knows where it's at
E
Well then suddenly we heard a siren
     G          A        E
And everybody started to run
E
Jumping out of doors and tables
        G             A
Well I heard somebody shooting a gun

E
Well the DA was pumping my left hand
    G       A          E
And she was holding my right
E
Well I told her don't get scared
              G
'Cause you're gonna be spared
         A
Well I'm gonna be forgiving
     G
If I wanna spend my living
       E                    G
With a long cool woman in a black dress
       A             E
Just a 5'9 beautiful tall
                           G
With just one look I was a bad mess
             A                     E
'Cause that long cool woman had it all

Had it all...

--
Phil Comeau, comeau@crc.sofkin.ca


--
+----------------------------------------------------------------------------+
|  Steve Portigal, Dep't of CIS, University of Guelph, Guelph, ON, N1G 2W1   |
|  email: stevep@snowhite.cis.uoguelph.ca    Phone: (519) 824-4120 ext 3580  |
| ~~~~~~~~ ask me about 'undercover' the Rolling Stones mailing list ~~~~~~~ |
|    		  Hey man you got the real bum's eye for clothes..           |
+----------------------------------------------------------------------------+

Comments