Hollies - He Aint Heavy Hes My Brother Chords & Tabs

 

He Aint Heavy Hes My Brother Chords & Tabs

Hollies Chords & Tabs

Version: 2 Type: Bass Tab 0 ratings
1 star 2 stars 3 stars 4 stars 5 stars
comments

He Aint Heavy Hes My Brother Bass Tab

                              He Ain't Heavy, He's My Brother
			        	The Hollies

                                                      Transcribed by Justin Benz


    0:00                                                                        
G---|-----------------|-----------------|-----------------|---------------------
D---|--5--------------|--4--------------|--2--------------|---------------------
A---|-----------------|-----------------|-----------------|--5------------------
E---|-----------------|-----------------|-----------------|---------------------
                                                                                

                                                                                
G---|-----------------------|-----------------------|---------------------------
D---|--5--------5--5-----5--|--4--------4--4-----4--|--2-----2--2--2-----2------
A---|--------5--------------|--------5--------------|---------------------------
E---|-----------------------|-----------------------|---------------------------
                                                                                

                                                                                
G---|--2-----2--4--------------|-----------------------|------------------------
D---|--------------0-----1-----|--2--------2--2-----2--|--3--------3--3---------
A---|--------------------------|--------2--------------|--------3---------------
E---|--------------------------|-----------------------|------------------------
                                                                                

                                                                                
G------|--2--------2--2-----4--|--------------------|---------------------------
D---2--|--------2--------------|--0--------0--------|--5--------5--5-----5------
A------|-----------------------|--------------------|--------5------------------
E------|-----------------------|--------------------|---------------------------
                                                                                

                                                                                
G---|-----------------------|-----------------------|---------------------------
D---|--4--------4--4-----4--|--2-----2--2--2-----2--|--1-----1--1--1-----1------
A---|--------5--------------|-----------------------|---------------------------
E---|-----------------------|-----------------------|---------------------------
                                                                                

                                                                                
G---|--------------------------|--------4--------------|------------------------
D---|--5--------5--5-----5--6--|--7--------0-----0-----|--5-----------5---------
A---|--------5-----------------|-----------------------|------------------------
E---|--------------------------|-----------------------|------------------------
                                                                                

                         1:03                                                   
G---|--------------------|-----------------------|-----------------------|------
D---|--7-----------------|--5--------5--5-----5--|--4--------4--4-----4--|------
A---|-----------5--------|--------5--------------|--------5--------------|------
E---|--------------------|-----------------------|-----------------------|------
                                                                                

                                                                                
G------------------------|--2-----2--4--------------|---------------------------
D---2-----2--2--2-----2--|--------------0-----1-----|--2--------2--2-----2------
A------------------------|--------------------------|--------2------------------
E------------------------|--------------------------|---------------------------
                                                                                

                                                                                
G---|-----------------------|--2--------2--2-----4--|---------------------------
D---|--3--------3--3-----2--|--------2--------------|--0--------0-----0---------
A---|--------3--------------|-----------------------|---------------------------
E---|-----------------------|-----------------------|---------------------------
                                                                                

                                                                                
G---|-----------------------|-----------------------|---------------------------
D---|--5--------5--5-----5--|--4--------4--4-----4--|--2-----2--2--2-----2------
A---|--------5--------------|--------5--------------|---------------------------
E---|-----------------------|-----------------------|---------------------------
                                                                                

                                                                                
G---|-----------------------|--------------------------|------------------------
D---|--1-----1--1--1-----0--|--5--------5--5-----5--6--|--7-----5--4------------
A---|-----------------------|--------5-----------------|--------------7--5------
E---|-----------------------|--------------------------|------------------------
                                                                                

                                                       1:54                     
G------------|--------------------|--2--------4--------|------------------------
D------------|--5--------5--5-----|--------------------|------------------------
A------5-----|--------5-----------|--------------------|--3--------3------------
E------------|--------------------|--------------------|------------------------
                                                                                
[ Tab from: http://www.guitartabs.cc/tabs/h/hollies/he_aint_heavy_hes_my_brother_btab_ver_2.html ]
                                                                                
G---|--------------------|--------------------|-----------------5--5--|--4------
D---|--------------------|--------------------|-----------------------|---------
A---|--3--------3--------|--3--------3--------|--3--------3-----------|---------
E---|--------------------|--------------------|-----------------------|---------
                                                                                

                                                                                
G------------4--2--4--|-----------------|--------------------|------------------
D---------------------|--0--------------|--------------------|--2---------------
A---------------------|-----------------|--3--------2--------|-----------5------
E---------------------|-----------------|--------------------|------------------
                                                                                

                                                                                
G---------|--------------------|-----------------------|--------------5--4------
D---------|--------------------|-----------2--2--------|------------------------
A---------|--3--------2--------|--0-----0-----------0--|--5-----5---------------
E---------|--------------------|-----------------------|------------------------
                                                                                

                                  2:32                                          
G---------------|-----------------|-----------------------|---------------------
D---7--5--4-----|-----------------|--5--------5--5-----5--|--4--------4--4------
A------------7--|--5--------------|--------5--------------|--------5------------
E---------------|-----------------|-----------------------|---------------------
                                                                                

                                                                                
G---------|-----------------------|--2-----4--------------|---------------------
D------4--|--2-----2--2--2-----2--|-----------0-----1-----|--2--------2--2------
A---------|-----------------------|-----------------------|--------2------------
E---------|-----------------------|-----------------------|---------------------
                                                                                

                                                                                
G---------|-----------------------|--2--------2--2-----2--|---------------------
D------2--|--3--------3--3-----3--|--------2--------------|--0--------0---------
A---------|--------3--------------|-----------------------|---------------------
E---------|-----------------------|-----------------------|---------------------
                                                                                

          2:57                                                                  
G---------|-----------------------|--4-----------------------------|------------
D---0-----|--5--------5--5-----5--|-----------4-----------4--------|--2---------
A---------|--------5--------------|-----------------5-----------5--|------------
E---------|-----------------------|--------------------------------|------------
                                                                                

                                                                                
G------------------|-----------------------|--------------------------|---------
D---2--2--2-----2--|--1-----1--1--1-----1--|--5--------5--5-----5--6--|--7------
A------------------|-----------------------|--------5-----------------|---------
E------------------|-----------------------|--------------------------|---------
                                                                                

                                                                                
G------------------------|-----------------------|-----------------------|------
D------7--9--0-----0-----|--5--------5--5-----5--|--4--------4--4-----4--|------
A------------------------|--------5--------------|--------5--------------|------
E------------------------|-----------------------|-----------------------|------
                                                                                

                                                                                
G------------------------|--2-----2--4--------------|---------------------------
D---2-----2--2--2-----2--|--------------0-----1-----|--2--------2--2-----2------
A------------------------|--------------------------|--------2------------------
E------------------------|--------------------------|---------------------------
                                                                                

                                                                                
G---|-----------------------|--2--------2--2-----2--4--|------------------------
D---|--3--------3--3-----3--|--------2-----------------|--0--------0-----0------
A---|--------3--------------|--------------------------|------------------------
E---|-----------------------|--------------------------|------------------------
                                                                                

       3:42                                                                     
G------||------------------------|-----------------------|----------------------
D------||*--5--------5--5-----5--|--4--------4--4-----4--|--2-----2--2--2-------
A------||*--------5--------------|--------5--------------|----------------------
E------||------------------------|-----------------------|----------------------
                                                                                

                                  Repeat and Fade                               
G------|---------------------------||-----------------||------------------------
D------|-----------------------4--*||-----------------||------------------------
A------|--5--------5--------5-----*||-----------------||------------------------
E------|---------------------------||-----------------||------------------------
                                                                                



================================================================================
==                Created with a demo version of BUCKET O' TAB                ==
==                  tablature creation software for Windows                   ==
==                       http://www.his.com/~gse/bucket                       ==
================================================================================


Comments