Hole - Youve Got No Right Chords & Tabs

 

Youve Got No Right Chords & Tabs

Hole Chords & Tabs

Version: 1 Type: Bass Tab 0 ratings
1 star 2 stars 3 stars 4 stars 5 stars
comments

Youve Got No Right Bass Tab

   
You've Got No Right
written by: Kurdt Cobain
transcribed from MTV's Hole Unplugged

  riff 1                  riff 2
G:----------------------||-------------------------|---------------------------------||
D:4---------------------||-------------------------|---------------------------------||
A:4-5-7-----7-5-7-----7-||-3-3-3-3-3-3-3-3-3-3-3-3-|-5-5-5-5-5-5-5-5-5-5-5-5-5-5-5-5-||
E:------0-0-------0-0---||-------------------------|---------------------------------||
    1 e & a 2 3 e & a 4    1 e & a 2 & 3 & 4 e & a   1 e & a 2 e & a 3 e & a 4 e & a


                                                         
[ Tab from: http://www.guitartabs.cc/tabs/h/hole/youve_got_no_right_btab.html ]
 riff 3                                                  
G:----------------------|-------------------------------|--------------------------||
D:----------------------|-------------------------------|--------------------------||
A:-5-7-----7------------|-5-7-----7--------/10-10-10-10-|-5-7-----7----------------||
E:-----0-0---/3-3-3-3-3-|-----0-0---/3-3-3--------------|-----0-0---/5-5-5-5-5-5-5-||
   1 e & a 2  3 e & a 4   1 e & a 2  3 e &  4  e  &  a    1 e & a 2  3 e & a 4 e a

                              


G:--------------------------||
D:--------------------------||
A:-5-7-----7----------------||
E:-----0-0---/5-5-5-5-5-5-5-||
   1 e & a 2  3 e & a 4 e a

'please dont be too hard on me.  this is my first submission'

Comments