Hole - Softer Softest Chords & Tabs

 

Softer Softest Chords & Tabs

Hole Chords & Tabs

Version: 2 Type: Bass Tab 0 ratings
1 star 2 stars 3 stars 4 stars 5 stars
comments

Softer Softest Bass Tab

				    HOLE
                              SOFTER, SOFTEST

                                    Bass


                           Transcribed by Gianni

    Verse:

    G----------------------------------------------------|
    D----------------------------------------------------|
    A--------------------------------0-0-0-2-0-----------|
    E--3-3-3-3-3-3-3-3-3-3-3-0-3---------------3---------|

    Chorus:
[ Tab from: http://www.guitartabs.cc/tabs/h/hole/softer_softest_btab_ver_2.html ]
    G----------------------------------------------------|
    D----------------------------------------------------|
    A---0-0-3-3------------------------------------------|
    E--------------3-0-3-0-3-0-3-------------------------|

    Bridge:

    G----------------------------------------------------|
    D----------------------------------------------------|
    A--5-5-5-5-----3-3-3-3------2-2-2-2------------------|
    E-----------------------------------------3-3-3-3----|



Comments