Hole - Rock Star Chords & Tabs

 

Rock Star Chords & Tabs

Hole Chords & Tabs

Version: 2 Type: Bass Tab 0 ratings
1 star 2 stars 3 stars 4 stars 5 stars
comments

Rock Star Bass Tab

				    HOLE
                                 ROCK STAR

                                    Bass


                           Transcribed by Gianni

  Enter Bass: Right after "...in Olympia..."
[ Tab from: http://www.guitartabs.cc/tabs/h/hole/rock_star_btab_ver_2.html ]
  G---------------------------------------------------------------------|
  D---------------------------------------------------------------------|
  A--7-7-7-7-7-7-7-7-7-7-----2-2-2-2-2-2-2-2-2-2------------------------|
  E-----------------------------------------------------5-5-5-5-5-5-5-5-|

  Chorus: "Don't you please..."

  G-----------------------------------------|
  D-----------------------------------------|
  A----7-7-7-7--2-2-2-2--3-3-3-3------------|
  E---------------------------------5-5-5-5-|



Comments