Hole - Phonebill Song Chords & Tabs

 

Phonebill Song Chords & Tabs

Hole Chords & Tabs

Version: 1 Type: Bass Tab 0 ratings
1 star 2 stars 3 stars 4 stars 5 stars
comments

Phonebill Song Bass Tab

				    HOLE
                               PHONEBILL SONG

                                    BASS


                Transcribed by fadingmoviecredits@yahoo.com

    Intro: "I could really fuck you up, yeah.."
[ Tab from: http://www.guitartabs.cc/tabs/h/hole/phonebill_song_btab.html ]
    G |----------------------------|
    D |----------------------------|
    A |----------------------------|
    E |--3-5-3-5-3-5-3-5-3---------|

    Verse:

    G |----------------------------|
    D |----------------------------|
    A |--------3-5-------3-5-------|
    E |--3-5-------3-5-------3-----|

    Chorus:

    G |----------------------------|
    D |----------------------------|
    A |--7-7-7-5-5-5-3-3-3-3-3-5-7-|
    E |----------------------------|



Comments