Hole - Petals Chords & Tabs

 

Petals Chords & Tabs

Hole Chords & Tabs

Version: 1 Type: Tab 0 ratings
1 star 2 stars 3 stars 4 stars 5 stars
comments

Petals Tab

   
#----------------------------------PLEASE NOTE---------------------------------#
#This file is the author's own work and represents their interpretation of the #
#song. You may only use this file for private study, scholarship, or research. #
#------------------------------------------------------------------------------#

Title: Petals
Artist: Hole
Album: Celebrity Skin

Transcribed By: Angela Yang
Contact Email: Angel5284@aol.com

Tuning: standard
Capo: none
Chords: EBGDAE
 Cmaj7X32000
 C032010
 Em022000
 AmX02210
 E022100
 F133211
 Asus2002200
 A002220

INTRO:
    Cmaj7     Em       Cmaj7     Em
E |----0---------0---------0---------0------|
B |----00--------00--------00--------00-----|
G |-00-00------0-00-----00-00------0-00-----|
D |-22--------22--------22--------22--------|
A |-3---------22--------3---------22--------|
E |-----------0-------------------0---------|

VERSES: (with some variations)
    Cmaj7     Em       Cmaj7     Em
E |----0---------0---------0---------0------|
B |----00--------00--------00--------00-----|
G |-00-00------0-00-----00-00------0-00-----|
D |-22--------22--------22--------22--------|
A |-3---------22--------3---------22--------|
E |-----------0-------------------0---------|
    

    Cmaj7         Em               Am         Am
E |-----0-------------0----------------0------------0---|
B |-----00------------00--------------11----------11----|
G |-00--00---------0--00----------22--22------22--22----|
D |-22------------22--------------22----------22--------|
A |-3-------------22--------------0-----------0---------|
E |---------------0-------------------------------------|
    

CHORUS: (also with some variations)
    Am             C             Em             Em
E |-----0--------------0-------------0---------------0------|
B |-11--11---------11--11------------00---------------0-----|
G |-22--22---------00--00--------00--00---------00--0-------|
D |-22-------------22------------22-------------22----------|
A |-0--------------3-------------22-------------22----------|
E |------------------------------0--------------0-----------|
    Tear the petals off of you, and make you tell the truth
[ Tab from: http://www.guitartabs.cc/tabs/h/hole/petals_tab.html ]
    Am             C             Em          Em
E |-----0--------------0------------00---------0-----------|
B |-11--11---------11--11-----------00----------0----------|
G |-22--22---------00--00-------00--00------00---0---------|
D |-22-------------22-----------22----------22-------------|
A |-0--------------3------------22----------22-------------|
E |-----------------------------0-----------0--------------|
    Tear the petals off of you...

BRIDGE:
    Em      Am   
E |--0------0------|
B |--0------1------| 
G |--0------2------| 3 times (let ring)
D |--2------2------|
A |--2------0------|
E |--0-------------|
    Ah...it's all mine

    C             Em       
E |----0--------------0-----|
B |-1--11-------------00----|
G |-00-00----------00-00----|
D |-22-------------22-------|
A |-3--------------22-------|
E |----------------0--------|
 I,  Never knew what I could be

    C                E            F              Asus2-A
E |----0--------------0------------1----------------0----|
B |-1--11-------------00-----------11------------00-22---|
G |-00-00----------11-11--------22-22------------22-22---|
D |-22-------------22-----------33---------------22------|
A |-3--------------22-----------33---------------0-------|
E |----------------0------------1------------------------|
   All the darling buds of May, they fall with no sound


    C            E        F           Asus2-A
E |----0------------0--------1------------0-----|
B |-1--11-----------00-------11--------00-22----|
G |-00-00--------11-11----22-22--------22-22----|
D |-22-----------22-------33-----------22-------|
A |-3------------22-------33-----------0--------|
E |--------------0--------1---------------------|
   They carry you down, they carry you down ...

    A      F       F       A
E |----0------1------1------0--|
B |-00-22-----11-----11--00-2--|
G |-22-22--22-22--22-22--22-2--|
D |-22-----33-----33-----22----|
A |-0------33-----33-----0-----|
E |--------1------1------------|
  ...ooooooooo....ooooooooo...


OUTRO: (intrumental - bass)
A |-0---3---2---------0---3---------| 
E |---------------------------0-----| fade...
Comments