Hole - Northern Star (riff) Chords & Tabs

 

Northern Star (riff) Chords & Tabs

Hole Chords & Tabs

Version: 1 Type: Tab 0 ratings
1 star 2 stars 3 stars 4 stars 5 stars
comments

Northern Star (riff) Tab

#----------------------------------PLEASE NOTE---------------------------------#
#This file is the author's own work and represents their interpretation of the #
#song. You may only use this file for private study, scholarship, or research. #
#------------------------------------------------------------------------------#

Sorry, these tabs arent exact, (and probably arent very clear either; this one’s pretty hard
to tab out) but they’re pretty darn close.  No one’ll be able to tell the difference.

Intro:
            RIFF 1     RIFF 2
e---------------------------------------------*--------------------------------------|
B---------------------------------------------*-------2----------2----------0--------|
G---------------------------------------------*----0----0-----0----0----1----------2-|
D------3-----------2--------------6-------9--*-3---------2-----------2----------2----|
A---3----------3------------7----------9-----*--------------------------------0------|
E-1-------1----0--------0--0----------7------*---------------------------------------|
[ Tab from: http://www.guitartabs.cc/tabs/h/hole/northern_star_riff_tab.html ]
*play Riff 1, and then add...
Riff 3
e------------------------------------|
B------------------------------------|
G------------------------------------|
D-----------------5------5----5------|
A---------------5-------5------------|
E------------3--------3-----3--------|
(repeat throughout chorus)
And I wait, staring at the northern star, I’m afraid it won’t lead me anywhere.  he’s so
cold, he will ruin the world tonight, all the angels kneel into the northern lights; kneel
into the frozen lights

==============================================================================================

HOLE:  NORTHERN STAR
--------------------

Riff One:
 
1:---------------------------------------|
2:---------------------------------------|
3:----------------------------------1--2-|
4:--------3------------2---------------2-|
5:-----3------------3------------2-----0-|
6:--1--------1---0--------0---0----------|
 
Riff Two:
 
1:------------------------------------------|
2:---------1------------1-----------0-------|
3:-----0-------------0----------1------2----|
4:--3---------3---2--------2--2--------2----|
5:----------------------------------------0-|
6:------------------------------------------| 




tabman_oo7
Comments