Hole - Miss World Chords & Tabs

 

Miss World Chords & Tabs

Hole Chords & Tabs

Version: 1 Type: Tab 0 ratings
1 star 2 stars 3 stars 4 stars 5 stars
comments

Miss World Tab

Standard tuning (EADGBE)

Intro

I am the girl......

E ------------2---2-2----1---1-1-1--3---3-3-3-3-----------
B --3---3-3---3---3-3----1---1-1-1--1---1-1-1-1-----------
G --0---0-0---2---2-2----2---2-2-2--0---0-0-0-0-----------
D --0---0-0---0---0-0----3---3-3-3--2---2-2-2-2-----------
A --0---0-0---x---x-x----x---x-x-x--3---3-3-3-3-----------
E --3---3-3---x---x-x----x---x-x-x--x---x-x-x-x-----------

Rest of the song pretty much:

guitar 1:

E --------------------------------------------------------------------
B --------------------------------------------------------------------
G -------------------------------------9-9-9-9/-7-7-7-7/-5-5-5-5-5-5-5
D -5-5-5-5/--7-7-7-7/--9-9-9-9-9-9-9---x-x-x-x/-x-x-x-x/-x-x-x-x-x-x-x
A -x-x-x-x/--x-x-x-x/--x-x-x-x-x-x-x---7-7-7-7/-5-5-5-5/-3-3-3-3-3-3-3
E -3-3-3-3/--5-5-5-5/--7-7-7-7-7-7-7----------------------------------
Repeat

Guitar 2:
[ Tab from: http://www.guitartabs.cc/tabs/h/hole/miss_world_tab.html ]
E --------------------------------------------------------------------
B --------------------------------------------------------------------
G -7-7-7-7/-9-9-9-9/--11-11-11-11-11-11-11---11-11-11-11/-9-9-9-9/-7-7
D -x-x-x-x/-x-x-x-x/--x--x--x--x--x--x--x----x--x--x--x-/-x-x-x-x/-x-x
A -5-5-5-5/-7-7-7-7/--9--9--9--9--9--9--9----9--9--9--9-/-7-7-7-7/-5-5
E --------------------------------------------------------------------

Hope that doesn't suck too bad. if ya know another way to play it let me know.

Lyrics:

I am the girl you know, can't look you in the eye
I am the girl you know, so sick I cannot try
And I am the one you want, can't look you in the eye
I am the girl, you know I lie, I lie and lie
I'm Miss World, somebody kill me
Kill me pills
No one cares, my friends 
My friend
I'm Miss World, watch me break and watch me burn
No one is listening, my friend
Now I've made my bed, I'll lie in it
I've made my bed, I'll die in it
I've made my bed, I'll lie in it
I've made my bed, I'll die in it

Cute girls watch when I eat ether
Suck me under
Maybe forever, my friend
Now I've made my bed, I'll lie in it
I've made my bed, I'll die in it
I've made my bed, I'll cry in it
I've made my bed, I'll lie in it
I am the girl you know, can't look you in the eye
Comments