Hole - Malibu Chords & Tabs

 

Malibu Chords & Tabs

Hole Chords & Tabs

Version: 2 Type: Bass Tab 0 ratings
1 star 2 stars 3 stars 4 stars 5 stars
comments

Malibu Bass Tab

   
Malibu by Hole

VERSE:

Intro

E:-----------------------------------------------------------------------
A:--7--7-7-7-7-5--5-5-5-5/2-2-2-2-2--2-2-2-0--0-0--0-0-0-2	
D:-----------------------------------------------------------------------
G:-----------------------------------------------------------------------

E:-----------------------------------------------------------------------
A:--7--7-7-7-7-5--5-5-5-5/2-2-2-2-2--2-2-2-0--0-0--0-0-2-2	
D:-----------------------------------------------------------------------
G:-----------------------------------------------------------------------

Crash and burn...

E:-----------------------------------------------------------------------
A:--7--7-7-7-7-5--5-5-5/2-2-2-2-2-2--2-2-2-0--0-0--0-2---5/	
D:-----------------------------------------------------------------------
G:-----------------------------------------------------------------------

E:------------------------------------------------------------------------
A:--/7--7----7--5--5-5----5-2-2--2--2--2-2-2-0--0-0-----2--7---	
D:------------------------------------------------------------------------
G:------------------------------------------------------------------------

E:------------------------------------------------------------------------
A:--7--7----7--5---5--5----5--2-2-2--2----2--0----0-0----2--5/-	
D:-----------------------------------------------------------------------
G:----------------------------------------------------------------------

E:-------------------------------------------------------------------0--2
A:-/7--7----7--5---5--5--5-5--2-2-2--2-2---0---0--0--0--0
D:-----------------------------------------------------------------------
G:-----------------------------------------------------------------------

CHORUS:

Hey hey...

E:--3-3-3-3-3-2-0-0-0-0-0-0-0----------------------------------------------0-2-------------------
A:-----------------------------------0-0-5-5-5-5-5-5-5-3-0-0-0---0-0-0-0-----------0---0-2-2/     
D:--------------------------------------------------------------------7-----------------7-7--7---------
G:-------------------------------------------------------------------------------------------------------

VERSE:

E:------------------------------------------------------------------------
A:--7--7----7--5---5--5----5--2-2-2--2----2--0----0-0----2--5/-	
D:-----------------------------------------------------------------------
G:-----------------------------------------------------------------------

E:------------------------------------------------------------------------

A:-/7--7-7-7--7-5--5--5------5-7--2--2-2-2-0-2-0--0-0--0-2-5/	
D:------------5--------7------7-----------------------------------------
G:------------------------------------------------------------------------

E:-------------------------------------------------------------------------0-2
A:-/7--7-7-7--7-5--5-5-5-5-7-5-4/2-2-2-2-2-0-2-0--0-0-0-0-0-----
D:------------5---------------------------------------------------------------	
G:-----------------------------------------------------------------------------

cry to the angels...
[ Tab from: http://www.guitartabs.cc/tabs/h/hole/malibu_btab_ver_2.html ]
E:-3-3-3--3-3-2-0--0-0-0-0-0-0--------------------------------------------
A:------------------------------------0-0-5-5-5-5-5-5-3-0--0-0-0-0-5-7--	
D:------------------------------------------------------------------------------4
G:-------------------------------------------------------------------------------

E:-----------------0---0-0-0------------------------------------------------------
A:-----------------7----------7--7--0-0-5--5-5-5-5-5-3-0---0-0-0-0-5-7---	
D:--5--5--5-5-4--------------5-------------------------------------------------4
G:----------------------------------------------------------------------------------

E:---------------------0-0-0----------------------------------------------0-2
A:------------------7--------7----7-0-0-5-5-5-5-5-3-0---0-0-0---4-----	
D:--5-5-5--5-5-4-------------5------------------------------------7--------
G:------------------------------------------------------------------------------

E: 
--3-3-3--3-3-2-0--0-0-0-0-0-0-------------------------------------------
A:-------------------------------------0-0-5-5-5-5-5-5-3-0-0-0-0----5-7--	
D:-----------------------------------------------------------------------7------4
G:--------------------------------------------------------------------------------

BRIDGE:

E:-----------------------------------------------------------------------------------
A:--5-5-5-5-5-5-5-4--4-4-4-4-4-4-4--7-7-7-7-7-7-7-7---7-7-7-7-7-7-7	
D:----------------------------------------------------------------------------------	
G:----------------------------------------------------------------------------------

E:----------------------------------------------------------------------------------
A:--5-5-5-5-5-5-5-4--4-4-4-4-4-4--------------------------------------------	
D:--------------------------------------7--0-0-0-0-0-5-7-0--0-0-0-0-5-7-5-
G:---------------------------------------------------------------------------------

E:----------------------------------------------------------------------------------
A:---------------------------------------------------------------------------7----	
D:--5-5-5-5-5----5-4---4-4-4-4-4-5-5-7-7-7-7-7------------7--7-7------
G:---------------4----------------------------------------7-9-9-7---------------

E:------------------------------------------------------------------------------0-0
A:----------------------------------------------0-0-0-5-7-0-0-0-0-0-5-4------	
D:--5-5---5-5-5-5-4-4-4-4-4-4-4-4-5-5--------------------------------------
G:------4---------------------------------------------------------------------------

E:--3-3---3-3---3-2-2-2-2-2-2-2-3-3----------------------------------
A:------2------2---------------------------0-0-0-0-3/0-0-0-0-0-0-0-2	
D:---------------------------------------------------------------------------
G:---------------------------------------------------------------------------

E:--------------------------------------0--0-0-0--------------
A:--0-0-0-0-5-7---------------------7----------7-----7-0-0		
D:-----------------4-5-5-5-5-5-5-4----------------5--------
G:--------------------------------------------------------------

E:------------------------------------------------------0
A:--5-5-5-5-5-5-0-0-0-0-0-0-7-------------------7		
D:-----------------------------------4-5-5-5-5-5-4---
G:-------------------------------------------------------

E:--0--0--0--0--0--0----------------------------------
A:--7--7--7--7--7--7--0-0--5------------------------			
D:------------------------------7-----------------------
G:-------------------------------------------------------
Comments