Hole - I Think I Would Die Chords & Tabs

 

I Think I Would Die Chords & Tabs

Hole Chords & Tabs

Version: 4 Type: Bass Tab 0 ratings
1 star 2 stars 3 stars 4 stars 5 stars
comments

I Think I Would Die Bass Tab

   
Song: I think that i would die
BAnd: Hole
Tabbed by: salma s.
email: i_love_nirvana_rhcp89@hotmail.com

I made a mistake but by the looks of things i dont even think anyone goes to look up
this song anyways so i guess i can get away with the stupid mistake i made..so anyway
THIS is the right bass tabs for the song
Standard Tuning: E A D G

First Verse: I'm stupid....I'm smarting
G|------------------------------------------------------------------------|
D|------------------------------------------------------------------------|
A|----------1--2-2/3--------1--2-2/3-(3)----------------------------------|
E|-(0)---3------------0---3--------------0----3---------------------------|


  I'm stupid......I'm smarting
G|-----------------------------------------------------------------------|
D|-----------------------------------------------------------------------|
A|---1--2-2/3-----------1--2-2/3-(3)-------------------------------------|
E|-------------0---3-----------------0-3-3-2-1-0-------------------------|


  I want my baby..Where is the baby?
G|-------------------------------------------------|
D|-------------------------------------------------|
A|--0-1--2-2/3-------------------------------------|Repeat till Chorus
E|------------0-3-3-2-1-0--------------------------|

Chorus 1: Rose white..rose red...
G|--------------------------------------------------------------------------|
D|--------------------------------------------------------------------------|
A|--5-5--8--8-8-8-8-7-5-3-3-3-3--3------------------------------------------|
E|--------------------------------------------------------------------------|

  Roses in in my head
G|--------------------------------------------------------------------------|
D|--------------------------------------------------------------------------|
A|-5-5-8-8-8-8-8-8-8-10-10-10-10-10-10-10-----------------------------------|
E|--------------------------------------------------------------------------|

 Rose white..rose red...
G|--------------------------------------------------------------------------|
D|--------------------------------------------------------------------------|
A|--5-5--8--8-8-8-8-7-5-3-3-3-3--3------------------------------------------|
E|--------------------------------------------------------------------------|

  aaaah aa aaaah ah
G|--------------------------------------------------------------------------|
D|--------------------------------------------------------------------------|
A|-5-5-8-8-8-8-8-8-8-10-10-10-10-10-10-10-----------------------------------|
E|--------------------------------------------------------------------------|

Verse 2: Yea, yea...I want some
G|-------------------------------------------------------------------------|
D|-------------------------------------------------------------------------|
A|----------1--2-2/3--------1--2-2/3-(3)-----------------------------------|
E|-(0)---3------------0---3-------------0----3-----------------------------|

  yea, yea...there is none...
G|-----------------------------------------------------------------------|
D|-----------------------------------------------------------------------|
A|---1--2-2/3-----------1--2-2/3-(3)-------------------------------------|
E|-------------0---3-----------------0-3-3-2-1-0-------------------------|

  I want my baby..Where is the baby?
G|-------------------------------------------------|
D|-------------------------------------------------|
A|--0-1--2-2/3-------------------------------------|about 5 times
E|------------0-3-3-2-1-0--------------------------|


Chorus 2: There is no milk
[ Tab from: http://www.guitartabs.cc/tabs/h/hole/i_think_i_would_die_btab_ver_4.html ]
G|--------------------------------------------------------------|
D|--------------------------------------------------------------|Repeat till
A|-1-1-(1)-2-3-3-3-(3)------------------------------------------|
E|---------------------0-3-3-3-2-1-0----------------------------|

G|--------------------------------------------------------------|
D|--------------------------------------------------------------|
A|-1-1-(1)-2-3-3-3-(3)/10-10-10-10------------------------------|Chorus 1
E|----------------------------------3-3-3-----------------------|


Chorus 1: Rose white..rose red...
G|--------------------------------------------------------------------------|
D|--------------------------------------------------------------------------|
A|--5-5--8--8-8-8-8-7-5-3-3-3-3--3------------------------------------------|
E|--------------------------------------------------------------------------|

  Roses in in my head
G|--------------------------------------------------------------------------|
D|--------------------------------------------------------------------------|
A|-5-5-8-8-8-8-8-8-8-10-10-10-10-10-10-10-----------------------------------|
E|--------------------------------------------------------------------------|

 Rose white..rose red...
G|--------------------------------------------------------------------------|
D|--------------------------------------------------------------------------|
A|--5-5--8--8-8-8-8-7-5-3-3-3-3--3------------------------------------------|
E|--------------------------------------------------------------------------|

  aaaah aa aaaah ah
G|--------------------------------------------------------------------------|
D|--------------------------------------------------------------------------|
A|-5-5-8-8-8-8-8-8-8-10-10-10-10-10-10-10-----------------------------------|
E|--------------------------------------------------------------------------|

Play Chorus 2: Ow.......OOOW
G|--------------------------------------------------------------|
D|--------------------------------------------------------------|
A|-1-1-(1)-2-3-3-3-(3)------------------------------------------|
E|---------------------0-3-3-3-2-1-0----------------------------|

G|--------------------------------------------------------------|
D|--------------------------------------------------------------|
A|-1-1-(1)-2-3-3-3-(3)/10-10-10-10------------------------------|
E|----------------------------------3-3-3-----------------------|

Verse 3: She lost all her innocence..give it to an absess

G|--------------------------------------------------------------------------|
D|--------------------------------------------------------------------------|
A|-------------5-----------5-----------5------------------------------------|
E|---3---3-(3)---3---3-(3)---3---3-(3)---3---3-(3)--------------------------|
(i'm not quite sure about this part)

Verse 4: yes, not yours FUCK YOU

G|----------------------------------------------------------------|
D|----------------------------------------------------------------|
A|--0h1--1/2--0h1--1/2--0h1--1/2--0h1--1/2------------------------|
E|----------------------------------------------------------------|

Chorus 2: There is no milk
G|--------------------------------------------------------------|
D|--------------------------------------------------------------|
A|-1-1-(1)-2-3-3-3-(3)------------------------------------------|
E|---------------------0-3-3-3-2-1-0----------------------------|

G|--------------------------------------------------------------|
D|--------------------------------------------------------------|
A|-1-1-(1)-2-3-3-3-(3)/10-10-10-10------------------------------|
E|----------------------------------3-3-3-----------------------|


Repeat till end...
Comments