Hole - Hit So Hard Chords & Tabs

 

Hit So Hard Chords & Tabs

Hole Chords & Tabs

Version: 1 Type: Tab 0 ratings
1 star 2 stars 3 stars 4 stars 5 stars
comments

Hit So Hard Tab

   
-------------------------------------------------------------------------------
			     Hit So Hard -Hole
-------------------------------------------------------------------------------
Tabbed by: Grant Smith
Email: bulletproof_cupid@hotmail.com

Tuning: Standard

| /  slide up
| \  slide down
| h  hammer-on
| p  pull-off
| ~  vibrato
| +  harmonic
| x  Mute note
| ^  Bend

Intro: (Not sure if this is a bass guitar but this is the tab anyway)

e|---------------------------------|---------------------------------|
B|---------------------------------|---------------------------------|
G|---------------------------------|---------------------------------|
D|-------------------------4-4-4-4-|-------------------------4-4-4-4-|
A|---------7-7-7-7-5-5-5-5---------|---------7-7-7-7-5-5-5-5---------|
E|-5-5-5-5-------------------------|-5-5-5-5-------------------------|

Chorus:

  A5       E5      D5     Dsus(add3) A5      E5      D5     Dsus(add3)
e|---------------------------------|---------------------------------|
B|---------------------------------|---------------------------------|
G|---------9-9-9-9-7-7-7-7-4-4-4-4-|---------9-9-9-9-7-7-7-7-4-4-4-4-|
D|-7-7-7-7-9-9-9-9-7-7-7-7-5-5-5-5-|-7-7-7-7-9-9-9-9-7-7-7-7-5-5-5-5-|
A|-7-7-7-7-7-7-7-7-5-5-5-5---------|-7-7-7-7-7-7-7-7-5-5-5-5---------|
E|-5-5-5-5-------------------------|-5-5-5-5-------------------------|

  A5       E5      D5     Dsus(add3) A5      E5      D5     Dsus(add3)
e|---------------------------------|---------------------------------|
B|---------------------------------|---------------------------------|
G|---------9-9-9-9-7-7-7-7-4-4-4-4-|---------9-9-9-9-7-7-7-7-4-4-4-4-|
D|-7-7-7-7-9-9-9-9-7-7-7-7-5-5-5-5-|-7-7-7-7-9-9-9-9-7-7-7-7-5-5-5-5-|
A|-7-7-7-7-7-7-7-7-5-5-5-5---------|-7-7-7-7-7-7-7-7-5-5-5-5---------|
E|-5-5-5-5-------------------------|-5-5-5-5-------------------------|

Verse: 
  Amaj                               Amaj
e|-0--------------------------------|-0--------------------------------|
B|-2--------------------------------|-2--------------------------------|
G|-2--------------------------------|-2--------------------------------|
D|-2--------------------------------|-2--------------------------------|
A|-0--------------------------------|-0--------------------------------|
E|----------------------------------|----------------------------------|
   Put   me   up   above   the   boy,   The one I love, I should destroy

  Amaj                               Amaj (Arpeggate in any order)
e|-0--------------------------------|-0---0---------0---------0--------|
B|-2--------------------------------|-2---2---2-----2---2-----2------2-|
G|-2--------------------------------|-2-2---2-----2---2-----2---2----2-|
D|-2--------------------------------|-2-2-------2---------2-------2--2-|
A|-0--------------------------------|-0--------------------------------|
E|----------------------------------|----------------------------------|
   My sweet tooth has burned a hole,   Forget about it all...He Hit So

Chorus:

  A5       E5      D5     Dsus(add3) A5      E5      D5     Dsus(add3)
e|---------------------------------|---------------------------------|
B|---------------------------------|---------------------------------|
G|---------9-9-9-9-7-7-7-7-4-4-4-4-|---------9-9-9-9-7-7-7-7-4-4-4-4-|
D|-7-7-7-7-9-9-9-9-7-7-7-7-5-5-5-5-|-7-7-7-7-9-9-9-9-7-7-7-7-5-5-5-5-|
A|-7-7-7-7-7-7-7-7-5-5-5-5---------|-7-7-7-7-7-7-7-7-5-5-5-5---------|
E|-5-5-5-5-------------------------|-5-5-5-5-------------------------|
    Hard                   I   Saw   Stars                  He hit so

  A5       E5      D5     Dsus(add3) A5      E5      D5     Dsus(add3)
e|---------------------------------|---------------------------------|
B|---------------------------------|---------------------------------|
G|---------9-9-9-9-7-7-7-7-4-4-4-4-|---------9-9-9-9-7-7-7-7-4-4-4-4-|
D|-7-7-7-7-9-9-9-9-7-7-7-7-5-5-5-5-|-7-7-7-7-9-9-9-9-7-7-7-7-5-5-5-5-|
A|-7-7-7-7-7-7-7-7-5-5-5-5---------|-7-7-7-7-7-7-7-7-5-5-5-5---------|
E|-5-5-5-5-------------------------|-5-5-5-5-------------------------|
  Hard                     I   Saw   God

Verse: 
  Amaj                               Amaj
e|-0--------------------------------|-0--------------------------------|
B|-2--------------------------------|-2--------------------------------|
G|-2--------------------------------|-2--------------------------------|
D|-2--------------------------------|-2--------------------------------|
A|-0--------------------------------|-0--------------------------------|
E|----------------------------------|----------------------------------|
   He's cold, give him a candy coat,   He can't swim but he can float

  Amaj                               Amaj (Arpeggate in any order)
e|-0--------------------------------|-0---0---------0---------0--------|
B|-2--------------------------------|-2---2---2-----2---2-----2------2-|
G|-2--------------------------------|-2-2---2-----2---2-----2---2----2-|
D|-2--------------------------------|-2-2-------2---------2-------2--2-|
A|-0--------------------------------|-0--------------------------------|
E|----------------------------------|----------------------------------|
    One by one they all fall down,   I look at him and drown...He Hit So

Chorus:

  A5       E5      D5     Dsus(add3) A5      E5      D5     Dsus(add3)
e|---------------------------------|---------------------------------|
B|---------------------------------|---------------------------------|
G|---------9-9-9-9-7-7-7-7-4-4-4-4-|---------9-9-9-9-7-7-7-7-4-4-4-4-|
D|-7-7-7-7-9-9-9-9-7-7-7-7-5-5-5-5-|-7-7-7-7-9-9-9-9-7-7-7-7-5-5-5-5-|
A|-7-7-7-7-7-7-7-7-5-5-5-5---------|-7-7-7-7-7-7-7-7-5-5-5-5---------|
E|-5-5-5-5-------------------------|-5-5-5-5-------------------------|
    Hard                   I   Saw   Stars                  He hit so

  A5       E5      D5     Dsus(add3) A5      E5      D5     Dsus(add3)
e|---------------------------------|---------------------------------|
B|---------------------------------|---------------------------------|
G|---------9-9-9-9-7-7-7-7-4-4-4-4-|---------9-9-9-9-7-7-7-7-4-4-4-4-|
D|-7-7-7-7-9-9-9-9-7-7-7-7-5-5-5-5-|-7-7-7-7-9-9-9-9-7-7-7-7-5-5-5-5-|
A|-7-7-7-7-7-7-7-7-5-5-5-5---------|-7-7-7-7-7-7-7-7-5-5-5-5---------|
E|-5-5-5-5-------------------------|-5-5-5-5-------------------------|
  Hard                     I   Saw   God                     I  Saw

Bridge:
[ Tab from: http://www.guitartabs.cc/tabs/h/hole/hit_so_hard_tab.html ]
   Amaj            Dmaj              Amaj            Dmaj
e|-0-0-0-0-0-0-0-0-2-2-2-2-2-2-2-2-|-0-0-0-0-0-0-0-0-2-2-2-2-2-2-2-2-|
B|-2-2-2-2-2-2-2-0-3-3-3-3-3-3-3-3-|-2-2-2-2-2-2-2 0-3-3-3-3-3-3-3-3-|
G|-2-2-2-2-2-2-2-2-2-2-2-2-2-2-2-2-|-2-2-2-2-2-2-2-2-2-2-2-2-2-2-2-2-|
D|-2-2-2-2-2-2-2-2-0-0-0-0-0-0-0-0-|-2-2-2-2-2-2-2-2-0-0-0-0-0-0-0-0-|
A|-0-0-0-0-0-0-0-0-----------------|-0-0-0-0-0-0-0-0-----------------|
E|---------------------------------|---------------------------------|
   God          One Big Shineing Glass            Your Secrets Safe Tonight
   Amaj            Dmaj              Amaj            Dmaj
e|-0-0-0-0-0-0-0-0-2-2-2-2-2-2-2-2-|-0-0-0-0-0-0-0-0-2-2-2-2-2-2-2-2-|
B|-2-2-2-2-2-2-2-0-3-3-3-3-3-3-3-3-|-2-2-2-2-2-2-2 0-3-3-3-3-3-3-3-3-|
G|-2-2-2-2-2-2-2-2-2-2-2-2-2-2-2-2-|-2-2-2-2-2-2-2-2-2-2-2-2-2-2-2-2-|
D|-2-2-2-2-2-2-2-2-0-0-0-0-0-0-0-0-|-2-2-2-2-2-2-2-2-0-0-0-0-0-0-0-0-|
A|-0-0-0-0-0-0-0-0-----------------|-0-0-0-0-0-0-0-0-----------------|
E|---------------------------------|---------------------------------|
             So Much So Much To Loose            Still Glad Were Alive

Interlude:
   D5    C5 Dsus(add3)Bmaj  Amaj      D5    C5 Dsus(add3)Bmaj Amaj
e|-------------------------0-0-0-0-|-------------------------0-0-0-0-|
B|-------------------------2-2-2-2-|-------------------------2-2-2-2-|
G|-7-7-7-7-6-6-4-4-4-4-4-4-2-2-2-2-|-7-7-7-7-6-6-4-4-4-4-4-4-2-2-2-2-|
D|-7-7-7-7-6-6-5-5-4-4-4-4-2-2-2-2-|-7-7-7-7-6-6-5-5-4-4-4-4-2-2-2-2-|
A|-5-5-5-5-4-4-----2-2-2-2-0-0-0-0-|-5-5-5-5-4-4-----2-2-2-2-0-0-0-0-|
E|---------------------------------|---------------------------------|

   D5    C5 Dsus(add3)Bmaj  Amaj      D5    C5 Dsus(add3)Bmaj Amaj
e|-------------------------0-0-0-0-|-----------------0-0-0-0-2-2-2-2-|
B|-------------------------2-2-2-2-|-----------------2-2-2-2-3-3-3-3-|
G|-7-7-7-7-6-6-4-4-4-4-4-4-2-2-2-2-|-7-7-7-7-6-6-4-4-2-2-2-2-2-2-2-2-|
D|-7-7-7-7-6-6-5-5-4-4-4-4-2-2-2-2-|-7-7-7-7-6-6-5-5-2-2-2-2-0-0-0-0-|
A|-5-5-5-5-4-4-----2-2-2-2-0-0-0-0-|-5-5-5-5-4-4-----0-0-0-0---------|
E|---------------------------------|---------------------------------|

Verse:

  Amaj                               Amaj
e|-0--------------------------------|-0--------------------------------|
B|-2--------------------------------|-2--------------------------------|
G|-2--------------------------------|-2--------------------------------|
D|-2--------------------------------|-2--------------------------------|
A|-0--------------------------------|-0--------------------------------|
E|----------------------------------|----------------------------------|
    He's  so  candy,  my  downfall,  Melts in my mouth,'til he's nothing at all

  Amaj                               Amaj (Arpeggate in any order)
e|-0--------------------------------|-0---0---------0---------0--------|
B|-2--------------------------------|-2---2---2-----2---2-----2------2-|
G|-2--------------------------------|-2-2---2-----2---2-----2---2----2-|
D|-2--------------------------------|-2-2-------2---------2-------2--2-|
A|-0--------------------------------|-0--------------------------------|
E|----------------------------------|----------------------------------|
    This  keeps  me, I can't sleep,   He rages to be  true....He Hit So

Chorus:

  A5       E5      D5     Dsus(add3) A5      E5      D5     Dsus(add3)
e|---------------------------------|---------------------------------|
B|---------------------------------|---------------------------------|
G|---------9-9-9-9-7-7-7-7-4-4-4-4-|---------9-9-9-9-7-7-7-7-4-4-4-4-|
D|-7-7-7-7-9-9-9-9-7-7-7-7-5-5-5-5-|-7-7-7-7-9-9-9-9-7-7-7-7-5-5-5-5-|
A|-7-7-7-7-7-7-7-7-5-5-5-5---------|-7-7-7-7-7-7-7-7-5-5-5-5---------|
E|-5-5-5-5-------------------------|-5-5-5-5-------------------------|
    Hard                   I   Saw   Stars                  He hit so

  A5       E5      D5     Dsus(add3) A5      E5      D5     Dsus(add3)
e|---------------------------------|---------------------------------|
B|---------------------------------|---------------------------------|
G|---------9-9-9-9-7-7-7-7-4-4-4-4-|---------9-9-9-9-7-7-7-7-4-4-4-4-|
D|-7-7-7-7-9-9-9-9-7-7-7-7-5-5-5-5-|-7-7-7-7-9-9-9-9-7-7-7-7-5-5-5-5-|
A|-7-7-7-7-7-7-7-7-5-5-5-5---------|-7-7-7-7-7-7-7-7-5-5-5-5---------|
E|-5-5-5-5-------------------------|-5-5-5-5-------------------------|
  Hard                     I   Saw   God                     I  Saw

Bridge:

   Amaj            Dmaj              Amaj            Dmaj
e|-0-0-0-0-0-0-0-0-2-2-2-2-2-2-2-2-|-0-0-0-0-0-0-0-0-2-2-2-2-2-2-2-2-|
B|-2-2-2-2-2-2-2-0-3-3-3-3-3-3-3-3-|-2-2-2-2-2-2-2 0-3-3-3-3-3-3-3-3-|
G|-2-2-2-2-2-2-2-2-2-2-2-2-2-2-2-2-|-2-2-2-2-2-2-2-2-2-2-2-2-2-2-2-2-|
D|-2-2-2-2-2-2-2-2-0-0-0-0-0-0-0-0-|-2-2-2-2-2-2-2-2-0-0-0-0-0-0-0-0-|
A|-0-0-0-0-0-0-0-0-----------------|-0-0-0-0-0-0-0-0-----------------|
E|---------------------------------|---------------------------------|
   God          One Big Shineing Glass            Your Secrets Safe Tonight
   Amaj            Dmaj              Amaj            Dmaj
e|-0-0-0-0-0-0-0-0-2-2-2-2-2-2-2-2-|-0-0-0-0-0-0-0-0-2-2-2-2-2-2-2-2-|
B|-2-2-2-2-2-2-2-0-3-3-3-3-3-3-3-3-|-2-2-2-2-2-2-2 0-3-3-3-3-3-3-3-3-|
G|-2-2-2-2-2-2-2-2-2-2-2-2-2-2-2-2-|-2-2-2-2-2-2-2-2-2-2-2-2-2-2-2-2-|
D|-2-2-2-2-2-2-2-2-0-0-0-0-0-0-0-0-|-2-2-2-2-2-2-2-2-0-0-0-0-0-0-0-0-|
A|-0-0-0-0-0-0-0-0-----------------|-0-0-0-0-0-0-0-0-----------------|
E|---------------------------------|---------------------------------|
             Look At The Pretty Clouds           Oh Man He Hit So....

Chorus:

  A5       E5      D5     Dsus(add3) A5      E5      D5     Dsus(add3)
e|---------------------------------|---------------------------------|
B|---------------------------------|---------------------------------|
G|---------9-9-9-9-7-7-7-7-4-4-4-4-|---------9-9-9-9-7-7-7-7-4-4-4-4-|
D|-7-7-7-7-9-9-9-9-7-7-7-7-5-5-5-5-|-7-7-7-7-9-9-9-9-7-7-7-7-5-5-5-5-|
A|-7-7-7-7-7-7-7-7-5-5-5-5---------|-7-7-7-7-7-7-7-7-5-5-5-5---------|
E|-5-5-5-5-------------------------|-5-5-5-5-------------------------|
    Hard                   I   Saw   Stars                  He hit so

  A5       E5      D5     Dsus(add3) A5      E5      D5     Dsus(add3)
e|---------------------------------|---------------------------------|
B|---------------------------------|---------------------------------|
G|---------9-9-9-9-7-7-7-7-4-4-4-4-|---------9-9-9-9-7-7-7-7-4-4-4-4-|
D|-7-7-7-7-9-9-9-9-7-7-7-7-5-5-5-5-|-7-7-7-7-9-9-9-9-7-7-7-7-5-5-5-5-|
A|-7-7-7-7-7-7-7-7-5-5-5-5---------|-7-7-7-7-7-7-7-7-5-5-5-5---------|
E|-5-5-5-5-------------------------|-5-5-5-5-------------------------|
  Hard                     I   Saw   God                     I  Saw God...

End

===============================================================================
Comments