Hole - Dicknail Chords & Tabs


Dicknail Chords & Tabs

Hole Chords & Tabs

Version: 2 Type: Bass Tab 0 ratings
1 star 2 stars 3 stars 4 stars 5 stars

Dicknail Bass Tab

bass tab transcribed by geniefur (menstrual_cola@hotmail.com)

hey daddy..
G -------------------|------------------
D -------------------|------------------
A -------------------|------------------
E -2-2-2-3-2-2-2-3-2-|------------------

i said stop..
G ---------------|------------------
D ---------------|------------------
A ---------------|------------------
E -7--2-2-2------|------------------
[ Tab from: http://www.guitartabs.cc/tabs/h/hole/dicknail_btab_ver_2.html ]
bridge part:
G -----------------|------------------
D -----------------|------------------
A -----------------|-3-3-3-3-1-1-1-1---
E -2-2-2-3-2-2-2-3-|------------------

claw claw on your sack..
G --------------------|------------------
D --------------------|-2-3-2-3-5-7/1----
A ----------2-3-2-3-3-|------------------
E -2-3-2-3-3----------|------------------

song format:
the first bass line continues on heaps of times
up til the "i said stop i did what you said
i did what you want" part..
then it goes back to the first one for another verse
and the back to the "i said stop" riff
then the bridge is played throughout the guitar solo
etc etc..