Hole - Credit In The Straight World Chords & Tabs

 

Credit In The Straight World Chords & Tabs

Hole Chords & Tabs

Version: 1 Type: Bass Tab 0 ratings
1 star 2 stars 3 stars 4 stars 5 stars
comments

Credit In The Straight World Bass Tab

			  	    HOLE
                        CREDIT IN THE STRAIGHT WORLD

                                    BASS


                  Transcribed by fadingmoviecredits@yahoo.com

  Intro:

  G |-----------------------------------------------------------
  D |-----------------------------------------------------------
  A |-----------------------------------------------------------
  E |-0-0-0-0-0---6-6-6-6-6---2-2-2-2-2---8-8-8-8-8-------------

  "You will die..."

  Chorus: (played really fast)
[ Tab from: http://www.guitartabs.cc/tabs/h/hole/credit_in_the_straight_world_btab.html ]
  G |-----------------------------------------------------------------------
  D |------------------------------------------------------------------------
  A |--------5-5-5-5-----------5-5-5-5------------5-5-5-5--------9-7-5-5-5-5-
  E |-0-0-0---------------0-0-0------------0-0-0-------------0---------------

  Between the 2 riffs play...

  G |---------------------------------------------------
  D |---------------------------------------------------
  A |-5-5-5-5-5-5-5-5-5-5------------------------------
  E |---------------------------------------------------

  This is an easy one to figure out once you get the hang of it...
  it's kind of fast, but you keep repeating the same riffs over and over.


Comments