Hole - Awful Chords & Tabs

 

Awful Chords & Tabs

Hole Chords & Tabs

Version: 2 Type: Tab

Awful Tab

   
-------------------------------------------------------------------------------
			     AWFUL - Hole
-------------------------------------------------------------------------------
Tabbed by: killmepills15
Email: sjlawson@rochester.rr.com

Tuning: Standard (EADGBe)

This is just the Guitar Pro Tab, tabbed out for people who don't have Guitar Pro.
I'm 100% positive that it is correct. Great song.

Intro/Verse 1:
                                                                        6
e|--7--7-7--7-7-7-|--7--7-7--7-7-7-|--7--7-7--7-7-7-|--5--5-5--5-5-5---------|
B|--9--9-9--9-9-9-|--9--9-9--9-9-9-|--7--7-7--7-7-7-|--5--5-5--5-5-5---------|
G|--9--9-9--9-9-9-|--9--9-9--9-9-9-|--8--8-8--8-8-8-|--6--6-6--6-6-6-------o-|
D|--9--9-9--9-9-9-|--9--9-9--9-9-9-|--9--9-9--9-9-9-|--7--7-7--7-7-7-------o-|
A|--7--7-7--7-7-7-|--7--7-7--7-7-7-|--9--9-9--9-9-9-|--7--7-7--7-7-7---------|
E|----------------|----------------|--7--7-7--7-7-7-|--5--5-5--5-5-5---------|

Chorus:
                                    2.5
e|--4--4-4--4-4-4-|--0--5-5--5-5-5---|-------7--7-7-7-|-------5--5-5-5-------|
B|--5--5-5--5-5-5-|--0--5-5--5-5-5---|-------7--7-7-7-|-------5--5-5-5-------|
G|--6--6-6--6-6-6-|--1--6-6--6-6-6-o-|-------8--8-8-8-|-------6--6-6-6-------|
D|--6--6-6--6-6-6-|--2--7-7--7-7-7-o-|--9-9--9--9-9-9-|--7-7--7--7-7-7-------|
A|--4--4-4--5-5-5-|--2--7-7--7-7-7---|--9-9--9--9-9-9-|--7-7--7--7-7-7-------|
E|----------------|--0--5-5--5-5-5---|--7-7--7--7-7-7-|--5-5--5--5-5-5-------|

Verse 2:
                                                                        4
e|--7--7-7--7-7-7-|--7--7-7--7-7-7-|--7--7-7--7-7-7-|--5--5-5--5-5-5---------|
B|--9--9-9--9-9-9-|--9--9-9--9-9-9-|--7--7-7--7-7-7-|--5--5-5--5-5-5---------|
G|--9--9-9--9-9-9-|--9--9-9--9-9-9-|--8--8-8--8-8-8-|--6--6-6--6-6-6-------o-|
D|--9--9-9--9-9-9-|--9--9-9--9-9-9-|--9--9-9--9-9-9-|--7--7-7--7-7-7-------o-|
A|--7--7-7--7-7-7-|--7--7-7--7-7-7-|--9--9-9--9-9-9-|--7--7-7--7-7-7---------|
E|----------------|----------------|--7--7-7--7-7-7-|--5--5-5--5-5-5---------|

Chorus:
                                    2.5
e|--4--4-4--4-4-4-|--0--5-5--5-5-5---|-------7--7-7-7-|-------5--5-5-5-------|
B|--5--5-5--5-5-5-|--0--5-5--5-5-5---|-------7--7-7-7-|-------5--5-5-5-------|
G|--6--6-6--6-6-6-|--1--6-6--6-6-6-o-|-------8--8-8-8-|-------6--6-6-6-------|
D|--6--6-6--6-6-6-|--2--7-7--7-7-7-o-|--9-9--9--9-9-9-|--7-7--7--7-7-7-------|
A|--4--4-4--5-5-5-|--2--7-7--7-7-7---|--9-9--9--9-9-9-|--7-7--7--7-7-7-------|
E|----------------|--0--5-5--5-5-5---|--7-7--7--7-7-7-|--5-5--5--5-5-5-------|
[ Tab from: http://www.guitartabs.cc/tabs/h/hole/awful_tab_ver_2.html ]
"Run away with the light..."
                                     2.5
e|------------------|------------------|----------------|--4--4-4--4-4-4-----|
B|----------5-------|-------5----------|--------5-------|--5--5-5--5-5-5-----|
G|-------------6----|----------6-----o-|-----------6----|--6--6-6--6-6-6-----|
D|-----6----------6-|-------------7--o-|--------------7-|--6--6-6--6-6-6-----|
A|--4---------------|----7-------------|-----7----------|--4--4-4--4-4-4-----|
E|------------------|--5---------------|--5-------------|--------------------|

e|-------7--7-7-7---|-------5--5-5-5---|-------------------------------------|
B|-------7--7-7-7---|-------5--5-5-5---|-------------------------------------|
G|-------8--8-8-8---|-------6--6-6-6---|-------------------------------------|
D|--9-9--9--9-9-9---|--7-7--7--7-7-7---|-------------------------------------|
A|--9-9--9--9-9-9---|--7-7--7--7-7-7---|-------------------------------------|
E|--7-7--7--7-7-7---|--5-5--5--5-5-5---|-------------------------------------|

Verse 3:
                                                                        4
e|--7--7-7--7-7-7-|--7--7-7--7-7-7-|--7--7-7--7-7-7-|--5--5-5--5-5-5---------|
B|--9--9-9--9-9-9-|--9--9-9--9-9-9-|--7--7-7--7-7-7-|--5--5-5--5-5-5---------|
G|--9--9-9--9-9-9-|--9--9-9--9-9-9-|--8--8-8--8-8-8-|--6--6-6--6-6-6-------o-|
D|--9--9-9--9-9-9-|--9--9-9--9-9-9-|--9--9-9--9-9-9-|--7--7-7--7-7-7-------o-|
A|--7--7-7--7-7-7-|--7--7-7--7-7-7-|--9--9-9--9-9-9-|--7--7-7--7-7-7---------|
E|----------------|----------------|--7--7-7--7-7-7-|--5--5-5--5-5-5---------|

"Just shut up, you're only sixteen..."
                                                                          
e|----------------|----------------|----------------|------------------------|
B|----------------|----------------|----------------|------------------------|
G|----------------|----------------|----------------|-----------------------o-|
D|----------9-----|----------9-----|----------9-----|----------9-----------o-|
A|--7---7------7--|--7---7------7--|--7---7------7--|--7---7------7----------|
E|----------------|----------------|----------------|------------------------|

"If the world is so wrong..."

e|-------7---7----|------7---7-----|------7---7-----|------5---5-------------|
B|-------9---9----|------9---9-----|------7---7-----|------5---5-------------|
G|-------9---9----|------9---9-----|------8---8-----|------6---6-----------o-|
D|--9-9----9---9--|--9-9---9---9---|--9-9---9---9---|--7-7---7---7---------o-|
A|--7-7----7---7--|--7-7---7---7---|--9-9---9---9---|--7-7---7---7-----------|
E|----------------|----------------|--7-7---7---7---|--5-5---5---5-----------|

"Swing low..."

e|--7--7-7--7-7-7-|--7--7-7--7-7-7-|--7--7-7--7-7-7-|--5--5-5--5-5-5---------|
B|--9--9-9--9-9-9-|--9--9-9--9-9-9-|--7--7-7--7-7-7-|--5--5-5--5-5-5---------|
G|--9--9-9--9-9-9-|--9--9-9--9-9-9-|--8--8-8--8-8-8-|--6--6-6--6-6-6-------o-|
D|--9--9-9--9-9-9-|--9--9-9--9-9-9-|--9--9-9--9-9-9-|--7--7-7--7-7-7-------o-|
A|--7--7-7--7-7-7-|--7--7-7--7-7-7-|--9--9-9--9-9-9-|--7--7-7--7-7-7---------|
E|----------------|----------------|--7--7-7--7-7-7-|--5--5-5--5-5-5---------|

e|-7~~--|
B|-9~~--|
G|-9~~--|
D|-9~~--|
A|-7~~--|
E|------|

That's It! ENJOY!

| /  slide up
| \  slide down
| h  hammer-on
| p  pull-off
| ~  vibrato
| +  harmonic
| x  Mute note
===============================================================================