Hole - Awful Chords & Tabs

 

Awful Chords & Tabs

Hole Chords & Tabs

Version: 1 Type: Tab 0 ratings
1 star 2 stars 3 stars 4 stars 5 stars
comments

Awful Tab

INTRO (guitar 1)
e-------------------------------------
B-------------------------------------
G--1-1-1-1-1-1-1-1--4-4-4-4--2-2-2-2--
D--2-2-2-2-2-2-2-2--4-4-4-4--2-2-2-2-- (2x)
A--2-2-2-2-2-2-2-2--2-2-2-2--0-0-0-0--
E-------------------------------------

(guitar 2)
e--0-0-0-0-0-0-0-0--0-0-0-0--0-0-0-0--
B--0-0-0-0-0-0-0-0--0-0-0-0--0-0-0-0--
G--1-1-1-1-1-1-1-1--1-1-1-1--1-1-1-1--
D--2-2-2-2-2-2-2-2--2-2-2-2--2-2-2-2--
A--2-2-2-2-2-2-2-2--2-2-2-2--2-2-2-2--
E-------------------------------------

e--0-0-0-0-0-0------------------------
B--0-0-0-0-0-0--5-4-4--2-2---0--------
G--1-1-1-1-1-1-------------2----------
D--2-2-2-2-2-2------------------------
A--2-2-2-2-2-2------------------------
E-------------------------------------

VERSE (guitar 1)
e-------------------------------------
B-------------------------------------
G--1-1-1-1-1-1-1-1--4-4-4-4--2-2-2-2--
D--2-2-2-2-2-2-2-2--4-4-4-4--2-2-2-2--
A--2-2-2-2-2-2-2-2--2-2-2-2--0-0-0-0--
E-------------------------------------
[ Tab from: http://www.guitartabs.cc/tabs/h/hole/awful_tab.html ]
(guitar 2)
e--------0---0-----      ---0-0-0-0-0-0------0---0----
B--------0---0-----      ---0-0-0-0-0-0------0---0----
G------1-----1-----      ---1-1-1-1-1-1------1---1----
D----2-----2---2--- (2x) ---2-2-2-2-2-2----2---2---2--
A--2---------------      ---2-2-2-2-2-2--2------------
E------------------      -----------------------------

CHORUS
e-------------------------
B-------------------------
G--6-6-6-6--6--1-1--2-2---
D--6-6-6-6--6--2-2--2-2--- (2x)
A--4-4-4-4--4--2-2--0-0---
E-------------------------

e----------------------------------------------
B----------------------------------------------
G--6--6-6--6-6-6-4--4-4--4-4-4-2--2-2--2-2-2---
D--6--6-6--6-6-6-4--4-4--4-4-4-2--2-2--2-2-2---
A--4--4-4--4-4-4-2--2-2--2-2-2-0--0-0--0-0-0---
E----------------------------------------------
 AWFUL (cont.)

POST-2ND CHORUS
("Hey, run away with the light...")
e--0--0-0--0-0-0-0--0-0--0-0-0--
B--2--2-2--2-2-2-2--2-2--2-2-2--
G--1--1-1--1-1-1-2--2-2--2-2-2--
D--2--2-2--2-2-2-2--2-2--2-2-2-- (3x)
A-------------------------------
E-------------------------------

          "We'll steal the light of the world"
e--0--0-0--0-0-0------------------------------
B--2--2-2--2-2-2-4--4-4--4-4-4-2--2-2--2-2-2--
G--1--1-1--1-1-1-4--4-4--4-4-4-2--2-2--2-2-2--
D--2--2-2--2-2-2-2--2-2--2-2-2-0--0-0--0-0-0--
A---------------------------------------------
E---------------------------------------------

BRIDGE
("Oh just shut up...")
e--0----0-0-0----
B--0----0-0-0----
G--0----0-0-0----
D--2----2-2-2---- (4x)
A--2----2-2-2----
E--0----0-0-0----

END ON:
e--0---
B--0---
G--1---
D--2---
A--2---
E--0---
Comments