Hole - Asking For It Chords & Tabs

 

Asking For It Chords & Tabs

Hole Chords & Tabs

Version: 3 Type: Tab 0 ratings
1 star 2 stars 3 stars 4 stars 5 stars
comments

Asking For It Tab

Dropped D Tuning
this is the version that features Kurt Cobain in the last verse...

Intro To Verse:  

e-------------------------------------------------------|
B-------------------------------------------------------|
G-------------------------------------------------------|
D-5----------------5------------------------------------|
A-5------5-----5----------------------------------------|
D-5---5-----5-------------------------------------------|



Verse: "everytime that i sell myself to you..."

e-------------------------------------------|
b-------------------------------------------|
g--7---5------------------------------------|
d--7---5---7---5--------------5-------------|x4
a--5---3---7---5-----5-----5----------------|
d----------7---5--5-----5-------------------|


Chorus: Was she asking for it?...was she asking nice? 

e---------------------|-----------------------|
B---------------------|---------------------3-|
G---------------------|---------------------2-|  (2x)
D-3--------3--2--1--0-|--3----3--2--1---------|
A-3--------3--2--1--0-|--3----3--2--1---------|
D-3--------3--2--1--0-|--3----3--2--1---------|

[ Tab from: http://www.guitartabs.cc/tabs/h/hole/asking_for_it_tab_ver_3.html ]
Bridge: (b4 Verse)
e------------------------------------------------|
b------------------------------------------------|
g--5---7---10------------------------------------|
d--5---7---10--7---5---------------5-------------|
a--3---5---8---7---5------5-----5----------------|
d--------------7---5---5-----5-------------------|


Verse 2: x6 (a bit of distortion at "evertime that a i stare in to the sun,
be a model or just look like one")

CHorus: x2

Verse 3: " if u live through this with me..."
i'm not quite sure about this part...but this is what i came up with

e-----------------------------------------------------------|
b-----------------------------------------------------------|
g--7-7-7-7-7--5-5-5-5-5--7-7-7-7-7--10-10-10-10-10----------|x2
d--7-7-7-7-7--5-5-5-5-5--7-7-7-7-7--10-10-10-10-10----------|
a--5-5-5-5-5--3-3-3-3-3--5-5-5-5-5--8--8--8--8--8-----------|
d-----------------------------------------------------------|

Leading Into Last Chorus: i'm not quite sure about this part either.

e---------------------------------------------------------|
B---------------------------------------------------------|
G----------------------7-7-7-----------------7-7-7-7-7----|
D-7--7--7-/-6-5--5--5--7-7-7--5-5-5/4-3-3-3--7-7-7-7-7----|
A-7--7--7-/-6-5--5--5--5-5-5--5-5-5/4-3-3-3--5-5-5-5-5----|
D-7--7--7-/-6-5--5--5---------5-5-5/4-3-3-3---------------|



Chorus:x8

Verse 3: x8

End: "live, live"

e---------------------------------------------------------|
B---------------------------------------------------------|
G----------------------7-7-7-----------------7-7-7-7-7----|
D-7--7--7-/-6-5--5--5--7-7-7--5-5-5/4-3-3-3--7-7-7-7-7----|
A-7--7--7-/-6-5--5--5--5-5-5--5-5-5/4-3-3-3--5-5-5-5-5----|
D-7--7--7-/-6-5--5--5---------5-5-5/4-3-3-3---------------|
Comments