Hole - Asking For It Chords & Tabs

 

Asking For It Chords & Tabs

Hole Chords & Tabs

Version: 2 Type: Tab 1 rating
1 star 2 stars 3 stars 4 stars 5 stars
comments

Asking For It Tab

-------------------------------------------------------------------------------
			     Asking For It - Hole 
------------------------------------------------------------------------------
Tabbed by: Lullaby

Note: listen to the song to get the rhythm, strumming patterns and order of the song.

Tuning: Standard 


Verse:
e|---0-------0------------------------------------------------------------
B|---3-------3------------0-----------------------------------------------
G|---2-------0------------2- ---------------------------------------0-----
D|---0-------2------------2-----------------0-----0------------0----------
A|-----------3------------0---------------4-----4-----or-----4----4-------
E|--------------------------------------3------3-----------3-----3--------
                                       There's a variation in this part
           
Part 2
This is almost like the verse but it is played without the fist chord in the lyricless/bridge part:
e|----------0------------------------------------------------------------
B|----------3------------0------------------------------------------------
G|----------0------------2------------------------------------------0-----
D|----------2------------2-----------------0-----0------------0-----------
A|----------3------------0---------------4------4----or-----4-----4-------
E|--------------------------------------3------3----------3-----3---------

Part 3
[ Tab from: http://www.guitartabs.cc/tabs/h/hole/asking_for_it_tab_ver_2.html ]
e|---------0--------------------------------------------------------------
B|---------3--------------------------------------------------------------
G|---------2--------------------------------------------------------------
D|-3-------0--------------------------------------------------------------
A|-3----------------------------------------------------------------------
E|-1----------------------------------------------------------------------
The first power chord can be replaced by this chord: 133211, or this: *33211

Chorus
Strum to the song..
e|-2--0--0--0------------------------------------------------------------
B|-3--3--3--3------------------------------------------------------------
G|-2--0--2--0------------------------------------------------------------
D|-0--2--0--2------------------------------------------------------------
A|----3-----3------------------------------------------------------------
E|-----------------------------------------------------------------------


Part 4
e|-2-3-2-0-0-1-0-0-3--2--------------------------------------------------
B|-3-3-3-3-1-1-1-0-3--3--------------------------------------------------
G|-2-2-2-0-0-0-0-0-2--2--------------------------------------------------
D|-0---------------------------------------------------------------------
A|-----------------------------------------------------------------------
E|-----------------------------------------------------------------------

END
Comments