Hole - Asking For It Chords & Tabs

 

Asking For It Chords & Tabs

Hole Chords & Tabs

Version: 2 Type: Bass Tab 0 ratings
1 star 2 stars 3 stars 4 stars 5 stars
comments

Asking For It Bass Tab

Hole   "Asking For It"

Listen to the song for the right rythyms also I don't think it's exact but
it's pretty close

Verse (repeat 4x in first verse, 6x in second and 4x in bridge)
G-----------------------------------------------------
D-----------------------------------------------------
A-5-5-5-5-5--3-3-3-3-3-----------------------------5--
E----------------------------0-5-5-5-4-3-3-3-3-3-3----

Chorus  (repeat 4x)
G--------------------
D--------------------
A----------5---5-5-0-
E-1------------------
[ Tab from: http://www.guitartabs.cc/tabs/h/hole/asking_for_it_btab_ver_2.html ]
post-(right after)chorus
G---------------------------------------------------------
D---------------------------------------------------------
A---------------5-5-5-5-5--3-3-3-3-3----------------------
E-1-1-1-1-1----------------------------5-5-5-5-4-3-3-3-3-3

after chorus, before bridge
G------------------
D------------------
A------------------
E-1-1-1-1-1-1-1-1--

The bridge is the same as the verse just a little bit of a tempo change

End ("ah....ah.....ah....ah...")
same as post-chorus but slower add an open E at the end

Hope it doesn't confuse you too much,
Megan Skrypichayko 


Comments