Hokus Pick - Sky Starts Falling Chords & Tabs

 

Sky Starts Falling Chords & Tabs

Hokus Pick Chords & Tabs

Version: 1 Type: Bass Tab 0 ratings
1 star 2 stars 3 stars 4 stars 5 stars
comments

Sky Starts Falling Bass Tab

Song: Sky Starts Falling
Artist: Hokus Pick
Album: Pick It Up
Tabbed by Stephen Toye (sk8r_ska55@hotmail.com)

Intro, verse:
-------------------------------------------
-------------------------------------------
-------0-1-2-2-1-0-----0-1-2-2-1-0-----2-2-
--2-2--------------2-2-------------0-0-----
[ Tab from: http://www.guitartabs.cc/tabs/h/hokus_pick/sky_starts_falling_btab.html ]
Pre-Chorus:
-------------------------------------------------
-------------------------------------------------
--2-4----------2-4----------4-7----------2-2-2-2-
-------------------------------------------------

Chorus:
--------------------------
--1--1--------4--4--------
--------2--2--------4--4--
--------------------------
Sometimes ends on A|--2--2--|

End Note:
A|--2--|

Comments