Hoku - You First Believe Chords & Tabs

 

You First Believe Chords & Tabs

Hoku Chords & Tabs

Version: 2 Type: Tab 0 ratings
1 star 2 stars 3 stars 4 stars 5 stars
comments

You First Believe Tab

YOU FIRST BELIEVED
By: Hoku
Transcribed by: Gemmo Fernandez

Verse:
e|--3----3------3-----3|
B|--3----3------3--3--3|
G|-----------------0---|
D|---------------------|
A|-----2----0-3----3---|
E|3--------------------|

e|--3----3------3-----3|
B|--3----3------3--3--3|
G|-----------------0---|
D|---------------------|
A|-----2----0-3----3---|
E|3--------------------|

e|-------------------------------------------3|
B|------3-----------3-----------3--------3-3-3|
G|----0---2-------2-----------0-------0--0-0--|
D|--0----------0------------0-----------------|
A|2--------------------0-3---------3-------3--|
E|----------2---------------------------------|
[ Tab from: http://www.guitartabs.cc/tabs/h/hoku/you_first_believe_tab_ver_2.html ]
Chorus:
e|--3----3------3-----3|
B|--3----3------3--3--3|
G|-----------------0---|
D|---------------------|
A|-----2----0-3----3---|
E|3--------------------|

e|----3----2h3-------|
B|----3--3-3----3-3-3|
G--------2------0-0-0|
D|-------------------|
A|-------0------3---3|
E|0-3----------------|

e|--3----3------3-----3|
B|--3----3------3--3--3|
G|-----------------0---|
D|---------------------|
A|-----2----0-3----3---|
E|3--------------------|

e|----3----2h3-------|
B|----3--3-3----3-3-3|
G--------2------0-0-0|
D|-------------------|
A|-------0------3---3|
E|0-3----------------|

e|-------|
B|3--3--3|
G|0--2--0|
D|-------|
A|2-----3|
E|---2---|

Bridge: (Do your own pattern)
e|-------|
B|3--3--3|
G|0--2--0|
D|-------|
A|2-----3|
E|---2---|
Comments