Hoge Will - Heartbreak Avenue Chords & Tabs

 

Heartbreak Avenue Chords & Tabs

Hoge Will Chords & Tabs

Version: 1 Type: Tab 0 ratings
1 star 2 stars 3 stars 4 stars 5 stars
comments

Heartbreak Avenue Tab

   
TITLE:  HEARTBREAK AVENUE 
ARTIST:  WILL HOGE
ALBUM:  CAROUSEL


VERSE 1

        G       C      D                        G
she was just 16 with a pack of cigarettes and a pawn shop ring 

C          D         Bm                  D          F
she wanted things to turn out like she'd seen right there

        D             C D G (X4)
on that silver screen 



|--------------------|------------------------|
|-5-3----------------|--5-3-------------3-----|
|-----4-2---5-4------|------4-2---5-4-5-------|
|---------5-----5----|----------5-------------|
|-----------------5--|------------------------|
|--------------------|------------------------|



       G            C        D                      G 
so she hit the road with her thumb in the air and a ring in her nose 

C                     D             Bm                     C
she had a tattoo of a butterfly because that 's the way it goes 

         F                             D
when you don't know just which way the wind will blow 


(chorus) 
[ Tab from: http://www.guitartabs.cc/tabs/h/hoge_will/heartbreak_avenue_tab.html ]
    G    C Em C D
hey girl  RIFF 1

                    G   C Em C D
where are you going to   RIFF 1

                G            C Em C D
say that you'll be the queen  RIFF 1

                 G    C Em C D
of heartbreak avenue   RIFF 2

      RIFF 1                   RIFF 2
|--------------|          |--------------|
|--------------|          |--------------|
|-5-4----------|          |--------------|
|-----7-5------|          |--------------|
|---------5----|          |--3-2-3-5-----|
|--------------|          |--------------|


she met a boy out there with a silver el dorado and jet black hair 
he had a tattoo of elvis so they took their clothes off to compare and well you know just how far these things can go 

then the sun came shining bright and true love in the morning never feels like it did last night 
he left a letter that said goodbye hold on tight 
now he's gone so she'll just move along 

(chorus)

(bridge) 

C              Em
so you say you don't know how 


A                       D        C
your broken dreams just drag you down   RIFF 3  5TH STRING 2,3,5,7,5

(chorus) 


na na na na na na na na na na na na na na na na 
Comments