Hoge Will - Be The One Chords & Tabs

 

Be The One Chords & Tabs

Hoge Will Chords & Tabs

Version: 1 Type: Tab 0 ratings
1 star 2 stars 3 stars 4 stars 5 stars
comments

Be The One Tab

   
TITLE:  Be The One 
ARTIST:  WILL HOGE
ALBUM:  BLACKBIRD ON A LONELY WIRE

CAPO 2ND FRET

INTRO RIFF
     A          A          A          D   G G
E--|----------|----------|----------|-----3-3-|--
A--|-0--------|-0--------|-0--------|-----2-2-|--
D--|-2-0H2-2P0|-2-0H2-2P0|-2-0H2-2P0|-0---0-0-|--
G--|-2----2---|-2----2---|-2----2---|-2---0-0-|--
B--|-2--------|-2--------|-2--------|-3---0-0-|--
E--|----------|----------|----------|-2---3-3-|--


VERSE1

CONTINUE INTRO RIFF
Night ends another day begins she feels just like she did the day before

She finds her coat she grabs her hat she picks her stockings up from off the bathroom floor

A                                           A7         Em7
With a plastic smile on closes the door and she's gone away

                  D                    Em7                      D        
She hears all the things that they say but talk is cheap so she gives it away

CHORUS
E         D           A
She don't want to get better


No no

E                 D         A
She just wants to have some fun
[ Tab from: http://www.guitartabs.cc/tabs/h/hoge_will/be_the_one_tab.html ]
          E            D             A
She'll do anything the boys will let her


Oh no

E                 D      A
She just wants to be the one


Yeah yeah yeah yeah

CHORUS 2 CONTINUE RIFF

She finds a bar that says it's open so she takes a step inside
A man with a tall drink and a Wall Street haircut says that he can give her a ride
With a plastic smile on closes the door and she's gone away
She hears all the things that they say but talk is cheap so she gives it away

BRIDGE
Bm        G             D                  A
Everybody wants to be a star in somebody's dream

Bm             G                D              E
But you can't get there darling down upon your knees


SOLO
E-5-3-----------------------------|------------------------------------|
B-----5P3-------------------------|---0-2---5^ 2----0-2---5^-2--3P2----|
G---------5-2-0---2-2-2-6^ 2-0-2--|-2-----2-------2-----2-----------2--|
D---------------2-----------------|------------------------------------|
A---------------------------------|------------------------------------|
E---------------------------------|------------------------------------|
Comments