Hog - Get A Job Chords & Tabs

 

Get A Job Chords & Tabs

Hog Chords & Tabs

Version: 2 Type: Tab 0 ratings
1 star 2 stars 3 stars 4 stars 5 stars
comments

Get A Job Tab

Hog - Get A Job
Tuning: drop D tuning (DADGBE)

Verse
[ Tab from: http://www.guitartabs.cc/tabs/h/hog/get_a_job_tab_ver_2.html ]
G--2-2--X--2-5-5-----------5-5-2-2--X--2-5--------------------------
D--2-2--X--2-5-5-----------5-5-2-2--X--2-5--------------------------
A--0-0--X--0-3-3-5-5--X--5-3-3-0-0--X--0-3-5-5-5-5-5-5-5-5-5-5-5-5-5
D----------------5-5--X--5-----------------5-5-5-5-5-5-5-5-5-5-5-5-5

repeat for prechorus as well

Chorus (Why doesn't anybody want me....)

G-----------------------------------
D-----------------------------------
A--7-7-7-7--3-3--5-5-----7-7-7-7--3-3--5-5
D--7-7-7-7--3-3--5-5-----7-7-7-7--3-3--5-5
Comments