Hoax - Under The Bridge Chords & Tabs

 

Under The Bridge Chords & Tabs

Hoax Chords & Tabs

Version: 1 Type: Tab 0 ratings
1 star 2 stars 3 stars 4 stars 5 stars
comments

Under The Bridge Tab

Hoax- Under the Bridge

This is a cover of the Red Hot Chili Peppers song, but I have tabbed how Hoax do it.
Standard tuning- (EADGBE)

x- palm mute with fretting hand
^- bend
/- slide
( )- slide to but don't pick note

Intro:  

e|-----------------------------------|-----------------------------|
b|--1-----------1--------------------|-----------------------------|
g|--------0--------0-----------------|-----------1-----------------|
d|-----------2-----------------------|-----2-----^--2--2--0--------|
a|-----3--------------2--0-----------|--2-----2--------------3--0--|
e|--------------------------3--2--0--|-----------------------------|

e|---------------------------|--------------------------------|
b|--1-----------1-----1/(3)--|--------------------------------|
g|--------0--------0---------|--------------1-----------------|
d|-----------2---------------|--------2-----^--2--2--0--------|
a|-----3---------------------|-----2-----2--------------3--0--|
e|---------------------------|--0-----------------------------|

Play that twice for the intro, and then go straight into the verse:

e|---------------------------------------------------|
b|---------------------------------------------------|
g|--9-------------------------6----------------------|
d|--9------------9------------6------------6----7----|
a|--7------------9------------4------------6----7----|
e|---------------7-------------------------4----5----|
    "Sometimes I feel like, i don't have a part-ner"...
[ Tab from: http://www.guitartabs.cc/tabs/h/hoax/under_the_bridge_tab.html ]
e|-------------------------------------|
b|-------------------------------------|
g|--9---------------------6------------|
d|--9-----------9---------6-------7----|
a|--7-----------9---------4-------7----|
e|--------------7-----------------5----|
..."sometimes I feel like my only friend"...

Continue this through the verse (additional lyrics are at bottom of page)

e|--4--| This is the chord that seperates the two verses from each
b|--4--| other, and the second verse from the chorus. Hit the chord so
g|--4--| that each note can be heard as an individual, but don't play
d|--0--| it arpeggio.
a|-----|
e|-----|

Chorus:

e|-------------------------|
b|-------------------------|
g|-------------------------|
d|--4--4--4--4--4--4----2--|
a|--4--4--4--4--4--4----2--|
e|--2--2--2--2--2--2----0--|
    "I don't ever wanna feel"...

e|--11--11--11--11--11------9---9----9--|
b|--10--10--10--10--10-----10--10---10--|
g|--11--11--11--11--11-----10--10---10--|
d|--------------------------------------|
a|--------------------------------------|
e|--------------------------------------|
                ..."like I did that day"...

This continues throughout the chorus.

Play this after the chorus:

e|---------0---0---0---0---0----0------|
b|--2--2---1---1---1---1---3----1------|
g|--2--2---0---0---0---0---4----2------|
d|--2--2---2---2---2---2---5----3------|
a|--0--0---3---3---3---3---0----0------|
e|---------0---0---0---0---------------|
   "Ye-ah, yeah I said oh yeah, yeah"...

Play that four times then play:

e|----------------------------------------x--x--x--x----------|
b|----------------------------------------x--x--x--x----------|
g|----------------------------------------x--x--x--x----------|
d|--10--10--10--10--10--10--10----9----9--x--x--x--x--12--12--|
a|--10--10--10--10--10--10--10----9----9--x--x--x--x--12--12--|
e|---8---8---8---8---8---8---8----7----7--x--x--x--x--10--10--|
                          ..."One time"...    

And that's the song! Enjoy!
Comments