Hoax - Remote Viewing Chords & Tabs

 

Remote Viewing Chords & Tabs

Hoax Chords & Tabs

Version: 1 Type: Tab 0 ratings
1 star 2 stars 3 stars 4 stars 5 stars
comments

Remote Viewing Tab

   
HOAX
REMOTE VIEWING
FROM THE ALBUM SAFETY FIRST

OK, this song is an instrumental, and basically is soloing over a chord progression.

Chord progression running throughout song:

    Am             C              D     Dsus4    Em
e|--0--0--0--0--|--0--0--0--0--|--2--2--3--2--|--0--0--0--0--|
B|--0--0--0--0--|--1--1--1--1--|--3--3--3--3--|--0--0--0--0--|
G|--1--1--1--1--|--0--0--0--0--|--2--2--2--2--|--0--0--0--0--|
D|--2--2--2--2--|--2--2--2--2--|--0--0--0--0--|--2--2--2--2--|
A|--2--2--2--2--|--3--3--3--3--|--------------|--2--2--2--2--|
E|--------------|--0--0--0--0--|--------------|--0--0--0--0--|

Firstly is an, as far as I can tell, improvised solo in the key of G, so just go nuts.
After about 8 bars, go back to the chord progression while playing the below.

NOTATION LEGEND:

( )- GHOST NOTE

~~~- VIBRATO

^  - BEND

*  - LET RING

\  - PULL OFF

|.|- REPEAT
|.|- BARS

Solo part 2:

e|--5--8-\-(5)-------------------------------~~~--|.|
B|--------------8--5--8--7--5-----7--5--------5---|.|
G|-----------------------------7--------7--5------|.|
D|------------------------------------------------|.|
A|------------------------------------------------|.|
E|------------------------------------------------|.|
[ Tab from: http://www.guitartabs.cc/tabs/h/hoax/remote_viewing_tab.html ]
e|--8--10--8------8--10--8------10-------------12--10*--12--10--|.|
B|------------10------------10------8--10--12--^^---------------|.|
G|--------------------------------------------------------------|.|
D|--------------------------------------------------------------|.|
A|--------------------------------------------------------------|.|
E|--------------------------------------------------------------|.|

e|--------5--8--5---------------------------------~~~-|.|
B|--8--8-----------8*--7--5---------------------7--5--|.|
G|--^------------------------7--5--9*--9--7--5--------|.|
D|---------------------------------^---0--------------|.|
A|----------------------------------------------------|.|
E|----------------------------------------------------|.|


Phew, that's about it, apart from the outro riff:

OUTRO RIFF:

X- PALM MUTE WITH FRETTING HAND

  Very fast.
e|--15--12------------------------------------------|--X--X--X--X-----|
B|----------15--12----------------------------------|--X--X--X--X-----|
G|------------------14--12--------------------------|--X--X--X--X--9--|
D|--------------------------14--12------------------|--X--X--X--X--9--|
A|----------------------------------14--12----------|--X--X--X--X--7--|
E|------------------------------------------15--12--|--X--X--X--X-----|

Well, thats all. It may look complicated but its really easy. The hardest bit is to make
up an inprovised solo.

Laters, fee.
Comments