Hoax - My Society Chords & Tabs

 

My Society Chords & Tabs

Hoax Chords & Tabs

Version: 1 Type: Tab 0 ratings
1 star 2 stars 3 stars 4 stars 5 stars
comments

My Society Tab

Artist: Hoax
Album: Safety First
Track: My Society
Tabbed by Flexos C. 
This is a great song off a great album
and its really easy to play, so rock on!

P=Pulloff
[ Tab from: http://www.guitartabs.cc/tabs/h/hoax/my_society_tab.html ]
Intro/Chorus:
e-------------------------------------------
b-------------------------------------------
g-------------------------------------------
d----2--2--2-------------------------------
a----2--2--2--0--2p0---------------------
e-------------------------0-0-0-0-0-0-0-0

Verse:

e---------------------------
b---------------------------
g---------------------------
d----0--0--3--0--3--0----
a--------------------------3
e---------------------------
Comments